El Pibe Tripa, Pibes Chorros (tablatura)

Autor: Anónimo | 28457 visualizaciones



Ariel, dale que sale

Cm

1 |-------8--8---------------------------------|
2 |-----8--8------8---8------------------------|
3 |-------------8---8----5-8-5-8-----5---5-----| (#1)
4 |--------------------------------5---5-------|
5 |--------------------------------------------|
6 |--------------------------------------------|

Pibes choorros

1 |-------------------8----------8-------------|--------------8-----------8------------|
2 |-----8--8------------8---6--8-----8---------|--8--8----------8----6--8----8---------|
3 |----8-----8-7-5--------8------------8-7-5---|-8-----8-7-5-------8-----------8-7-5---|(#2)
4 |--------------------------------------------|---------------------------------------|
5 |--------------------------------------------|---------------------------------------|
6 |--------------------------------------------|---------------------------------------|

Mama chorra, como siempre, tenes razon


---(Organo acompañado por :  Cm G Cm )

Cm
Esta es la historia de un muchacho
                G
que tenia una gran tripa
         G#           Bb     Cm      
y a las mujeres las hacia suspirar

Cm
Andaba al palo todos los dias
                G      
y yo me moria de envidia
         G#           Bb     Cm                  
ninguna mina se me queria acercar


Estribillo:
Bb                Cm                  
Yo quiero tener ese pedazo de tripa
Bb           Cm
para poderla mostrar
Bb                Cm            
yo (?) que las minas me harian
Bb           Cm
meta soplar y soplar

Bb                Cm                  
Yo quiero tener ese pedazo de tripa
Bb           Cm
para poderla mostrar
Bb                Cm
andaria orgulloso mostrando mi tripa
Bb           Cm
pero al negro solo se le da

(#2)

---(Repite todo desde el organo en adelante)


aguante la nueva luna y los pibes chorros!
cualquier duda o para intercambiar tabs, al mail





Calificar esta versión:
Aviso: Este fichero es trabajo propio de su transcriptor y representa su interpretación personal de la canción. El material contenido en esta página es para exclusivo uso privado, por lo que se prohibe su reproducción o retransmisión, así como su uso para fines comerciales.