Seres Extraños, Perotá Chingó (acordes)

Autor: Currambarthox | 321 visualizaciones

amcdmg
Intro:
e|------------------------------------------5---------------------------------|
B|-----5-----------------6-------5----------5--------8--------6--------5------|
G|-----5--------5--------5-------5----------5--------5--------5--------5------|
D|-----5--------5--------5-------5----------7--------5--------5--------5------|
A|-----8--------7--------7-------7----------8--------7--------7--------7------|
E|--5--------5--------5--------5----------5--------5--------5--------5--------|


e|-------------------0--0--0-0-0---------0--0--0-0-0----3-3-3--3-3--4--5------|
B|-----5---------1---1--1--1-1-1----1----1--1--1-1-1----3-3-3--3-3--4--5------|
G|-----5-------2---2----2--2-2-2------2-----2--2-2-2----0-0-0--0-0--5--5------|
D|-----5------------------------------------------------0-0-0--0-0--6--7------|
A|-----------0--------------------0-----0---------------2-2-2--2-3--6--7------|
E|--5---------------------------------------------------3-3-3--3-3--4--5------|


e|----------------<12>--------------|
B|-----0----------<12>--------------|
G|--------5-------------------------|
D|--7--------7/17-------------------|
A|----------------------------------|
E|----------------------------------|


Am                 Dm
No sé si me habrás visto
G            Am
En alguna reunión
Dm                       G
Soy el que está sentado solo en el sillón

Am                Dm
No te preocupes cuando
  G            Am
Te parece verme mal
Dm
Nada más estoy pensando
    C
Que nada mas estoy pensando
   G              Am
En como cambiar el mundo

 G                           Am
Y cuando duermo boca abajo sueño
       G
Que la mente se va a jugar por allá
          Am
Dejando el cuerpo atrás no lo puedo alcanzar
    G                            Am
Cuando me acuesto miro el techo y pienso
      G
En las cosas de mi que no soporto mas
     Am
pero no importa el tiempo está para cambiar
  G           Am
Y empezar a dar amor de nuevo

e|----------------<12>--------------|
B|-----0----------<12>--------------|
G|--------5-------------------------|
D|--7--------7/17-------------------|
A|----------------------------------|
E|----------------------------------|

    Dm         G
Y empezar a dar amor
     C                           Am
Y a recibirlo si estás dispuesto a darlo
     Dm     G
Y empezar a ver mejor
      C            Am
Qué están buscando esos seres extraños



<<>>


           Dm
Me siento sincero y tanto
   G           Am
Que nunca puedo bailar
 Dm                   G
Cuando no lo está escuchando el corazón
Am               Dm
Si me ves por la calle
   G              Am
seguro que voy cantando
     Dm
o golpeando las manos
     C
o revolviendo el aire
  G                 Am
haciendo redoblar el pecho


 G                           Am
Y cuando duermo boca abajo sueño
       G
Que la mente se va a jugar por allá
          Am
Dejando el cuerpo atrás no lo puedo alcanzar
    G                            Am
Cuando me acuesto miro el techo y pienso
      G
En las cosas de mi que no soporto mas
     Am
pero no importa el tiempo está para cambiar
  G           Am
Y empezar a dar amor de nuevo

e|----------------<12>--------------|
B|-----0----------<12>--------------|
G|--------5-------------------------|
D|--7--------7/17-------------------|
A|----------------------------------|
E|----------------------------------|
    Dm         G
Y empezar a dar amor
     C                           Am
Y a recibirlo si estás dispuesto a darlo
     Dm     G
Y empezar a ver mejor
      C            Am
Qué están buscando esos seres extraños
Calificar esta versión:
Aviso: Este fichero es trabajo propio de su transcriptor y representa su interpretación personal de la canción. El material contenido en esta página es para exclusivo uso privado, por lo que se prohibe su reproducción o retransmisión, así como su uso para fines comerciales.