Astronauta, Pereza (tablatura)

Autor: Anónimo | 19762 visualizaciones

Hola!! Esta cancion se la dedico a un crack --> Diego!!!
Pues he pasado buena noche sacando esta cancion lo mejor que he podido
y el ha sido el primero en probarla, espero que os guste.
Como siempre, lo que querais --> manu15paramo@hotmail.com

Intro:

 - Guitarra 1 -

D|------2b3-----2-------2b3----|
A|-----------------------------| => Se repite durante el verso
E|--3-3------3----3--3------3--|
    Todo el día igual, todo el día igual
    Todo en un momento, todo se me va
    Toda la gente que mira hacia atrás
    Todos se equivocan, todo se me va

D    C A#    C     G
Todos, todos están mal

 - Guitarra 2 -

e|--3--3-3-3--3-3---3-3-3-3--|  x2
B|---------------------------|

 - Guitarra 1 -

D|------2b3-----2-------2b3----|
A|-----------------------------| => Se repite durante el verso
E|--3-3------3----3--3------3--|
    Un día creo que voy a ganar
    Un día pierdo, un día verás
    Un día de estos voy a pensar
    Un día me juro que voy a cambiar


 - Guitarra 2-

e |---------------------|-7------------------|-7---------------------|
B |-8--8-7--8--8--8-7-8-|----8-7-8--7--7-7-8-|----8-7-8--7--7--7--7v-|
G |---------------------|--------------------|-----------------------|
D |---------------------|--------------------|-----------------------|
A |---------------------|--------------------|-----------------------|
E |---------------------|--------------------|-----------------------|

Em      C          G
Y no consigo disimular
G   D           Em    D               C
Que soy un astronauta en un mundo anormal


G      F     Em   C       G
Canta, canta conmigo y despierta
C  D        G
Despiértate ya
G       F     Em        C    G
Siempre hay alguien que me molesta
C   D         G
Y a mí me da igual

 - Guitarra 1 -

D|------2b3-----2-------2b3----|
A|-----------------------------| => Se repite durante el verso
E|--3-3------3----3--3------3--|
    Cambiamos el mundo de noche en un bar
    Cambia la gente, cambia la ciudad
    Cambian las cosas cuando tú no estás
    Un cambio de aceite nos vendría mal


D    C A#    C     G
Todos, todos están mal

 - Guitarra 2 -

e|--3--3-3-3--3-3---3-3-3-3--|  x2
B|---------------------------|

 - Guitarra 1 -

D|------2b3-----2-------2b3----|
A|-----------------------------| => Se repite durante el verso
E|--3-3------3----3--3------3--|
    La gente está loca, manchamos el mar
    Cualquier idiota se pone a cantar
    Una de arena, catorce de cal
    Soy un tipo extraño, un tipo cabal


 - Guitarra 2-

e |---------------------|-7------------------|-7---------------------|
B |-8--8-7--8--8--8-7-8-|----8-7-8--7--7-7-8-|----8-7-8--7--7--7--7v-|
G |---------------------|--------------------|-----------------------|
D |---------------------|--------------------|-----------------------|
A |---------------------|--------------------|-----------------------|
E |---------------------|--------------------|-----------------------|

Em      C          G
Y no consigo disimular
G   D           Em    D               C
Que soy un astronauta en un mundo anormal


G      F     Em   C       G
Canta, canta conmigo y despierta
C  D        G
Despiértate ya
G       F     Em        C    G
Siempre hay alguien que me molesta
C   D         G
Y a mí me da igual


D                   G
Aún así me siento vivo
D               G
Solo necesito hablar
Em                C                      D
Voy haciendo mi camino aunque te parezca mal


Puente: G - F - Em - C - G - C - D - G

e |-------------------------------|
B |-------------------------------|
G |-------------------12v--12-12--|
D |-------------9/12--------------|
A |--10-10-10---------------------|
E |-------------------------------|

e |-------------------------------------------------------|
B |-------10--10/12-10/12-10b12---------------------------|
G |--9-12------------------------12b14x--14--12-14-14-14--|
D |-------------------------------------------------------|
A |-------------------------------------------------------|
E |-------------------------------------------------------|

e |--13/15-15-15--13/15-15-15--|--15-15--13/15--------------|
B |----------------------------|-----------------13--11-----|
G |----------------------------|------------------------12--|
D |----------------------------|----------------------------|
A |----------------------------|----------------------------|
E |----------------------------|----------------------------|

e |------------------|------------------------|
B |------------------|----------11b12--11b12--|
G |--12--12--12--12--|--9-12-9----------------|
D |------------------|------------------------|
A |------------------|------------------------|
E |------------------|------------------------|


Em      C          G
Y no consigo disimular
G   D           Em    D               C
Que soy un astronauta en un mundo anormal


G      F     Em   C       G
Canta, canta conmigo y despierta
C  D        G
Despiértate ya
G       F     Em        C    G
Siempre hay alguien que me molesta
C   D         G
Y a mí me da igual


G      F     Em   C       G
Canta, canta conmigo y despierta
C  D        G
Despiértate ya
G       F     Em        C    G
Siempre hay alguien que me molesta
C
Y a mí me da igual
Calificar esta versión:
Aviso: Este fichero es trabajo propio de su transcriptor y representa su interpretación personal de la canción. El material contenido en esta página es para exclusivo uso privado, por lo que se prohibe su reproducción o retransmisión, así como su uso para fines comerciales.