Animales, Pereza (tablatura)

Autor: Anónimo | 40003 visualizaciones

Wiiiiiiiii!! Aquí estoy yo con una de las mejores canciones del disco
nuevo de Pereza. Me suena perfecta pero igual tiene algún fallo.
Se la dedico a todas esas xicas "malas" de x aki, a Sandra, a
Yesica, a Bea x chantajearme, a Bin (mi 'inseparable' guitarrista
preferido)y a un xaval k hizo que pudiera sacar esta canción
por completo en 52 minutos y 27 segundos!!! Diego, va por ti!!
Sugerencias y/o dudas a manu15paramo@hotmail.com

Esta canción parece complicada pero sigue una misma estructura,
así que para tocar no es muy difícil. En el estribillo se pueden
juntar las dos partes de Rubén y Pitu en una sola guitarra
aunque es un poco complicado tocar el acorde y un punteo tan
seguido.


NOTA: en esta canción hay dos guitarras: la de Rubén (que
llamaremos Rubén) y la de Pitu (que llamaremos Pitu).
La de Rubén toca el punteo y la de pitu los acordes que lo
acompañan, que son muy pocos.

LAcej
--5--
--5--
--6--
--7--
--7--
--5--


INTRO:
------

!Hey! ¿Cómo vas? ¿Cómo lo ves?
!Hey! ¿Cómo vas? ¿Cómo lo ves?

            RUBÉN
|---------------------------|------------------|
|---------------------------|------------------|
|------------5-----5--------|--8--7--5---------|
|--7--7---7-----7-----7-----|-----------7--5---|
|---------------------------|------------------|
|---------------------------|------------------|


       RUBÉN
|---------------------------|-------------------|
|---------------------------|-------------------|
|------------5-----5--------|-------------------|
|--7--7---7-----7-----7-----|--5--4--5--4--5----|
|---------------------------|-------------------|
|---------------------------|-------------------|



PARTE 1:
--------

        RUBÉN
|------------------------------------|
|------------------------------------|
|---9/12---8/11---7/9---5/7---5--2---|
|------------------------------------|
|------------------------------------|
|------------------------------------|

Mientras Rubén toca esta parte dos veces ( / es deslizar),
Pitu va tocando el acorde LAcej con un ritmo de Ska y Leiva
canta lo siguiente:

Cómo vas, cómo lo ves, cómo lo mueves de bien
Cómeme hasta que no me quede carne ni piel
Cómo quisiera tenerte, besarte entre la frente
Amarte en parte porque eres todo arte


ESTRIBILLO:
-----------

Pitu toca los acordes y Rubén el punteo, pero se puede
hacer con una sola guitarra. Se toca durante todo el estribillo
hasta "nada que nos separe", que se toca la parte de RUBÉN 2.
Repetir la parte RUBÉN-PITU 3 veces y después tocar RUBÉN 2.


Como si fuéramos unos animales
En cualquier parte con un plástico nos vale
Que estamos solos y no hay nada que nos pare
Nada que nos separe


         RUBÉN
|---------------------------|---------------------------|
|---------------------------|---------------------------|
|-------------5-----5-------|----------8--7--5----------|
|---7--7---7-----7-----7----|-------------------7--5----|
|---------------------------|---------------------------|
|---------------------------|---------------------------|
         PITU
|---------------------------|---------------------------|
|---------------------------|---------------------------|
|---------------------------|---7--7--------------------|
|---7--7--------------------|---7--7--------------------|
|---7--7--------------------|---5--5--------------------|
|---5--5--------------------|---------------------------|


         RUBÉN
|---------------------------|---------------------------|
|---------------------------|---------------------------|
|-------------5-----5-------|---------------------------|
|---7--7---7-----7-----7----|----------5--4--5--4--5----|
|---------------------------|---------------------------|
|---------------------------|---------------------------|
         PITU
|---------------------------|---------------------------|
|---------------------------|---------------------------|
|---------------------------|---7--7--------------------|
|---7--7--------------------|---7--7--------------------|
|---7--7--------------------|---5--5--------------------|
|---5--5--------------------|---------------------------|


    RUBÉN 2
|--------------|
|--------------|
|--------------|
|---5~---5/1---|
|--------------|
|--------------|


Parte 2:

Se vuelve a tocar la INTRO 2 veces y se toca lo mismo que
en la parte 1 con la siguiente letra:

Cómo vas, cómo lo ves, cómo lo quieres hacer
Cógeme, no tengas miedo, no te voy a morder
Cómo quisiera roerte y luego socorrerte
Atarte, mojarte y luego chulearte

Estribillo:

Se vuelve a tocar el estribillo tal y como era y después viene
un solo:


|------------------------------------|-----------------------------------|
|-7--8--7--8-----7--8--7--8--7--10---|-7--8--7--8-----7--8--7--8--7------|
|------------------------------------|--------------------------------5--|
|------------------------------------|-----------------------------------|
|------------------------------------|-----------------------------------|
|------------------------------------|-----------------------------------|

|------------------------------------|-----------------------------------|
|-7--8--7--8-----7--8--7--8--7--10---|-7--8--7--8-----7--8--7--8--7------|
|------------------------------------|--------------------------------5--|
|------------------------------------|-----------------------------------|
|------------------------------------|-----------------------------------|
|------------------------------------|-----------------------------------|

|------------------------------------|-----------------------------------|
|------------------------------------|-----------------------------------|
|----5--7--5-------------------5-----|----5--7--5-------------------5----|
|-7-----------7----5--7--7--5----7---|-7-----------7----5--7--7--5----7--|
|------------------------------------|-----------------------------------|
|------------------------------------|-----------------------------------|


Y la canción acaba tocando la intro y el estribillo varias veces
hasta la última vez que dice "nada que nos separe", que no se
toca nada.

Bueno, esto es todo!!!!!!
Calificar esta versión:
Aviso: Este fichero es trabajo propio de su transcriptor y representa su interpretación personal de la canción. El material contenido en esta página es para exclusivo uso privado, por lo que se prohibe su reproducción o retransmisión, así como su uso para fines comerciales.