Es Hora, Pelo Madueño (acordes)

Autor: Daemon195 | 30206 visualizaciones

bmcsosmdfsosm
I: RIff 1 + RIff 2 + [F#m - Bm - D - Bm]


F#m                        Bm
Es hora de pararse y continuar
                                 D
sin miedos ni fantasmas que auyentar
                          Bm-Riff 2
Es hora de operar y conciliar


F#m                          Bm
Es hora de arriesgar un poco mas
                         D
buscar la verdadera libertad
                          C#m
oir las voces de esta soledad

INTRO

F#m                       Bm
Es hora de variar la posicion
                         D
tocarte y mirar con emocion
                             Bm
la magia de un momento abrazador

F#m                        Bm
Es hora de mostrar un poco mas
                           D
abrirnos las entrañas, enseñar
                              C#m
lo que llevamos dentro sin privar

F#m                             Bm
Es hora de encontrar nuestro lugar
                            D
debajo de la luna sobre el mar,
                           Bm
seguir tu sobresalto sin dudar

F#m                        Bm
Es hora de la fuerza del amor,
                            D
el hermano de sangre, del dolor
                             C#m
Es hora de entregarte el corazon


CORO:  Riff 3

[LOS MISMOS ACORDES]
Es hora de acercarse a la verdad
muy lejos de los hombres y volar
sin culpa, religion y sociedad.

Es hora de avanzar un poco mas
poner el punto cero en el final
trazar la ruta en la inmensidad

Es hora de besarte sin parar
amarte con blanca profundidad
hundirnos en un mantra natural

Es hora de decir que esto no va
que todo fue mentira y cortar
con este mundo ajeno y material


CORO:  Riff 3

solO + F#m - Bm - D - C#m


Riff 1
e----------------------------------
 ----------------------------------
 ----------------------------------
 -2s4-4-2----------------------x3--
 ---------4-2-0-2-4-4-2-5----------
 -------------------------2--------


Riff 2
e----------------
 ----------------
 ----------------
 ---2/4/2---2/4--
 -4-------4------
 ----------------


Riff 3
  F#m  C#m  Bm      C#m
e------------------------------------
 ------------------------------------
 ------------------------------------
 -------------------------x2----2-----
 -----2-4---4-2-------4-----------4---
 -2-4-----------5-2-5----------------
Calificar esta versión:
Aviso: Este fichero es trabajo propio de su transcriptor y representa su interpretación personal de la canción. El material contenido en esta página es para exclusivo uso privado, por lo que se prohibe su reproducción o retransmisión, así como su uso para fines comerciales.