Decimas, Pedro Aznar (tablatura)

Autor: Anónimo | 32269 visualizaciones



Afinacion:
6   5   4   3   2    1
C#  F#  B   E   G#   C#

Intro:

   C#
1|----------0------------0-----------0-----------0---
2|------------0------------0-----------0-----------0-
3|----7---7--------7---7-------7---7-------7---7-----
4|------9------------9-----------7-----------7-------
5|---------------------------------------------------
6|---------------------------7-----------7-----------


1|----------0------------0-----------0-----------0---
2|------------0------------0-----------0-----------0-
3|----7---7--------7---7-------7---7-------7---7----- (x2)
4|------9------------9-----------7-----------7-------
5|---------------------------------------------------
6|--0------------0-----------7-----------7-----------

   <<<<<<<< va disminuyendo el sonido y empieza a cantar
1|----------0------------0---
2|------------0------------0-
3|----7---7--------7---7-----
4|------9------------9-------
5|---------------------------
6|--0------------0-----------

Empieza la estrofa: asi se arpegian los acordes

   C#               G#                           C#
1|---------0----------------0--------------0-------------0----
2|-----------0----------------0--------------0-------------0--
3|---7---7------------7---7----------7---7---------7---7------
4|-----9----------------9--------------7-------------7--------
5|------------------------------------------------------------
6|-0----------------7--------------7-------------0------------
  De nuevo perdi la ruta       navego por los desiertos

                G#                        B*
------------0-------------0-----------0-----------0-------------0---
--------------0-------------0-----------0-----3-------------------0-
------7---7---------7---7-------7---7-----------4---4-----7---7-----
--------9-------------9-----------7-------------------------9-------
--------------------------------------------5-----------------------
----0-------------7-----------7-------------------------0-----------
camino por mares muertos         la noche entera   se enluta

Intro (C# G#)x3

C#                G#
De nuevo perdí a ruta,
                  C#
navego por los desiertos,
                  G#
camino por mares muertos,
           B*           C#
la noche entera se enluta

                        G#
El sol se metió en su gruta,
                      C#
los mares se hunden mojados
                     G#
yo soy un nervio de atados
           B*            C#
un llanto largo y profundo
                    G#
no sé porque me confundo
         B            C#
con tus amores cansados


interludio con base de intro


C#                    G#
De noche muestra la luna
                       C#
su rostro alumbrado y triste
                       G#
el cielo al fin se desviste
           B*          C#
la muerte mece su cuna

                       G#
Que al fin la mala fortuna
                      C#
se vaya a dormir una rato
                    G#
se quite traje y zapatos
         B*            C#
y olvide de mi existencia
                      G#
que yo frente a su sentencia
        B*         C#
declaro mi desacato....

solo (x2)
1|----------4--2--2-2----2-2---5-5--4--4-4-4-4-4-
2|-3/5-5-5---------------------------------------
3|-----------4-2---2-2--2---2--6-6--4---4---4-4--
4|-3/5--5----------------------------------------
5|-----------------------------------------------
6|-----------------------------------------------

-5--7--9--10--9-10-9-10-9-7-5-4-
--------------------------------
-6--7--9--11--9-11-9-11-9-7-6-4-
--------------------------------
--------------------------------
--------------------------------

C#                    G#
*La vida es viaje fecundo,
                       C#
se puentes hacia los otros
                          G#
volaste el que había en nosotros
              B          C#
te fuiste por esos mundos

                 G#
*El frio cayó rotundo
                       C#
su olvido mostró los dientes
                   G#
no sabes como se siente
            B       C#
tener este miedo mudo
                    G#
pasado el sueño a futuro
          B           C#
no sé vivir el presente

2 vueltas de C# y G#

C#                    G#
De noche muestra la luna
                       C#
su rostro alumbrado y triste
                       G#
el cielo al fin se desviste
           B*          C#
la muerte mece su cuna

                       G#
Que al fin la mala fortuna
                      C#
se vaya a dormir una rato
                    G#
se quite traje y zapatos
         B*            C#
y olvide de mi existencia
                      G#
que yo frente a su sentencia
        B*         C#
declaro MI desacato..          .......


sigue con rasguidos de C# y G# con los acordes comunes
no como los arpegiados anteriormente

espero se entienda, cualquier duda escriban a gusfraba3a@gmail.com
PD: si alguien tiene el tema pasarero o cualquiera de aca seca trio,
de juan quintero y luna monti o carlos aguirre o de ese estilo,
por favor envienme acordes. gracias





Calificar esta versión:
Aviso: Este fichero es trabajo propio de su transcriptor y representa su interpretación personal de la canción. El material contenido en esta página es para exclusivo uso privado, por lo que se prohibe su reproducción o retransmisión, así como su uso para fines comerciales.