Ghost, Pearl Jam (bajo)

Autor: drsaturno | 31668 visualizaciones



-
-
-
-2-2-2---2-2--2--2-2--2-2----5-5-5---5-5--5--5-5--5-5

---------------------------------------------------------------4-4-4--4-4
-2-2-2---2-2--2--2-2--2-2----5-5-5---5-5--5--5-5--5-5

-
-
--------------2------2-----2-2-2-2------------2-2-2-2---3-3-2----
----2-2-2-2-----2-----2-------------2-2-2-2------------------------

-
-
-
2-2-2---2-2--5-5-5--5-5--5--5-5--5-5

-
-
-----------------------------------------------4-4-4--4-4
2-2-2---2-2--2--2-2--2-2----5-5-5---5-5

Perdon por algunos errores sepan arreglarlos a sus gusto lo basico esta





Calificar esta versión:
Aviso: Este fichero es trabajo propio de su transcriptor y representa su interpretación personal de la canción. El material contenido en esta página es para exclusivo uso privado, por lo que se prohibe su reproducción o retransmisión, así como su uso para fines comerciales.