Corduroy, Pearl Jam (acordes)

Autor: veddier | 38249 visualizaciones

asus2bccadd9emem9g


 Intro:

|-----------------------------------------|
|-----------------------------------------|
|-----4---4-----4---4-----4---4-----4---4-|
|-2-2---2---2-2---2-----2---2-----2---2---|
|---------------------0---------3---------|
|-----------------------------------------|



G           C     B  G
The waiting drove me mad
G              C            B G
You're finally here and I'm a mess
G           C B      G
I take your entrance back
G             C           B  G
Can't let you roam inside my head

C               Em        Asus2     G
I don't want to take what you can't give
C              Em          Asus2    G
I would rather starve than eat your bread
C              Em      Asus2   G
I would rather run but I can't walk
C               Em        Asus2  G
Guess I'll lie alone just like before




|------------------------------------------|
|------------------------------------------|
|-----4--4-----4---4---4---4---4-----4---4-|
|-2-2--2---2-2---2---2-------2-----2---2---|
|------------------------0-------3---------|
|------------------------------------------|




Cadd9 Em9
 Everything has chains
Cadd9 Em9
 Absolutely nothing's chains
Cadd9   Em9
Take my hand, not my picture
Em9        Cadd9
Spilled my tincture



Hail Hail! 





Calificar esta versión:
Aviso: Este fichero es trabajo propio de su transcriptor y representa su interpretación personal de la canción. El material contenido en esta página es para exclusivo uso privado, por lo que se prohibe su reproducción o retransmisión, así como su uso para fines comerciales.