Hop, Patito Feo (tablatura)

Autor: Cesar619 | 28998 visualizaciones

Hop rebelde sin pascua  La cancion en guitarra solo me se el coro q es : Quiero dulces . TENGO MUCHAS OPICONES USTED AGARREN LAS Q LE GUSTE 

             Opcion Num 1 *solo le sale si lo hacen rapido*
    
6 ---------------------------------------
5----------------------------
4--2-2-0-2---------------------------------
3-----------------------------------------
2-----------------------------------
1----------------------------------------

       Opcion Num 2 * solo le sale si lo hacen rapido*
6----------------------------------------
5-----------------------------------------
4--3---3---0---2-------------------------
3-------------------------------------
2---------------------------------------
1--------------------------------------


     Luego dicen ahora los q sabe q xdd ES CUANDO CANTAN LOS NIÑOS

6----------------------------------
5----------------------------------
4-----------------------------
3----------------------------
2--2-2-0-2---------------------
1------------------


Luego cuando dicen : Ahora los papas gruñones 


          Papas gruñones
6--2-2-0-2------------
5---------------------
4--------------------
3---------------------
2-------------------
1--------------------

Bueno espero q no se enojen luego saco la otra parte * Q YO LA INVENTE :S HACI Q ESO ES BRAVO XDD YA SACO LA OTRA PÁRTE GRACIAS
q s se olvide aganlo rapido osino no sale :D

Comentarios del colaborador: Ya saco la otra parte Solo les dejo el coro Ya q yo lo invente :D

Calificar esta versión:
Aviso: Este fichero es trabajo propio de su transcriptor y representa su interpretación personal de la canción. El material contenido en esta página es para exclusivo uso privado, por lo que se prohibe su reproducción o retransmisión, así como su uso para fines comerciales.