Hit Me Wiht Your Best Shot (guitar Hero ), Pat Benatar (tablatura)

Autor: alexcommin | 41456 visualizaciones



Intro :
1.------------------
2.------------------
3.-----2-2--6-6--4--
4.-----0-0--4-4--2--
5.--2---------------
6.--0---------------

1.---------------------------
2.---------------------------
3.-----2-2--6-6--4-4-2-2-4---
4.-----0-0--4-4--2-2-0-0-2---
5.--2------------------------
6.--0------------------------





Comentarios del colaborador: Y Creo k suena +so

Calificar esta versión:
Aviso: Este fichero es trabajo propio de su transcriptor y representa su interpretación personal de la canción. El material contenido en esta página es para exclusivo uso privado, por lo que se prohibe su reproducción o retransmisión, así como su uso para fines comerciales.