Anoche Dije Adios, Parabellum (tablatura)

Autor: brianpunk7 | 41694 visualizaciones

Anoche dije adios
a:----------------------------------------------------------------|
b:----------------------------------------------------------------|
c:- 7-7-7-7-7-7-7----9-9-9-9-9-9-9----6-6-6-6-6-6-6---------------|
d:- 5-5-5-5-5-5-5----7-7-7-7-7-7-7----4-4-4-4-4-4-4---------------|
e:----------------------------------------------------------------|
f:----------------------------------------------------------------|
  Anoche dije adios  trate de saltar   hacia donde estabas

a:------------------------------------------------------------------|
b:------------------------------------------------------------------|
c:- 7-7-7---7-7-7----7-7-7-7-7-7-7---9-9-9-9-9-9-9----6-6-6-6-6-6-6-|
d:- 5-5-5-5-5-5-5----5-5-5-5-5-5-5---7-7-7-7-7-7-7----4-4-4-4-4-4-4-|
e:------------------------------------------------------------------|
f:------------------------------------------------------------------|
      No pude llegar   el suelo me freno  gente alrededor    la acera sangraba

DISTORCION
a:----------------------------------------------------------------|
b:----------------------------------------------------------------|
c:--7-7-7-7-7-7-7----9-9-9-9-9-9-9----6-6-6-6-6-6-6---------------|
d:--5-5-5-5-5-5-5----7-7-7-7-7-7-7----4-4-4-4-4-4-4---------------|
e:----------------------------------------------------------------|
f:----------------------------------------------------------------|
  Lo volveré a intentar  si fuera por ti el cielo puede esperar

a:-----------------------------------------------------------------|
b:-----------------------------------------------------------------|
c:---7--7--7--9---9h12---9-7-6-------------------------------------|
d:-5--5--5------7--------------------------------------------------|
e:-----------------------------------------------------------------|
f:---------------------------------------------------------------- |
          Hu-hu-hu-hu-hu
a:-----------------------------------------------------------------|
b:-----------------------------------------------------------------|
c:-----7-7-6-6----7-7-66----7-7-6-6------7-7-6-6-------------------|
d:-7-7---------7-7-------7-7--------7-7----------------------------|
e:-----------------------------------------------------------------|
f:---------------------------------------------------------------- |

            De -men-tal

a:-----------------------------------------------------------------|
b:-----------------------------------------------------------------|
c:---7--7--7--9---9h12---9-7-6-------------------------------------|
d:-5--5--5------7--------------------------------------------------|
e:-----------------------------------------------------------------|
f:---------------------------------------------------------------- |
             Hu-hu-hu-hu-hu

a:-----------------------------------------------------------------|
b:-----------------------------------------------------------------|
c:-----7-7-6-6----7-7-66----7-7-6-6------7-7-6-6-------------------|
d:-7-7---------7-7-------7-7--------7-7----------------------------|
e:-----------------------------------------------------------------|
f:---------------------------------------------------------------- |

                Solo quiero acabar
a:-----------------------------------------------------------------|
b:-----------------------------------------------------------------|
c:---7--7--7--9----------------------------------------------------|
d:-5--5--5------7^^------------------------------------------------|
e:-----------------------------------------------------------------|
f:---------------------------------------------------------------- |
Hu-hu-hu-hu-huuu? en tu esquela

a:---------------------------------|
b:---------------------------------|
c:---------------------------------|
D:----4-5--4~~~-----4--5-2--4~~~---|   X2
e:-2-- ----------2-----------------|
f:---------------------------------|

a:---------------------------------|
b:---------------------------------|
c:---------------------------------|
D:----6--7--6~~~-----6-7-7-4--6~~~-|   X2
e:-4-- ----------4-----------------|
f:---------------------------------|

a:-----------------------------------------------------------------|
b:-----------------------------------------------------------------|
c:-----------------------------------------------------------------|
d:-7-7-7-7-7-7-7-7-7-7--9-9-9-9-9-9-9-9-9-9------------------------|
E:-5-5-5-5-5-5-5-5-5-5--7-7-7-7-7-7-7-7-7-7------------------------|
F:-----------------------------------------------------------------|

ELLA LEE CON PASION    ESA CARTA QUE ENCONTRO
a:-----------------------------------------------------------------|
b:-----------------------------------------------------------------|
c:----9-9-9-9-9-9-9-9-8-9-9-9-9---9-9------------------------------|
d:- --7-7-7-7-7-7-7-7-6-7-7-7-7---7-7-----7------------------------|
E:----------------------------------------5------------------------|
F:-----------------------------------------------------------------|
           DETRÁS DE LA ALMOHADA

a:-----------------------------------------------------------------|
b:-----------------------------------------------------------------|
c:-----------------------------------------------------------------|
d:-7-7-7-7-7-7-7-7-7-7--9-9-9-9-9-9-9-9-9-9------------------------|
E:-5-5-5-5-5-5-5-5-5-5--7-7-7-7-7-7-7-7-7-7------------------------|
F:-----------------------------------------------------------------|

HACE TREINTA AÑOS CAMBIO LA RAZON POR LA ILUSION

a:-----------------------------------------------------------------|
b:-----------------------------------------------------------------|
c:----9-9-9-9-9-9-9-9-8-9-9-8-9-9-9-9---9-9------------------------|
d:- --7-7-7-7-7-7-7-7-6-7-7-6-7-7-7-7---7-7-----7------------------|
E:----------------------------------------------5------------------|
F:-----------------------------------------------------------------|
           DE SER DESEADA                Y AHORA QUE?

a:-----------------------------------------------------------------|
b:-----------------------------------------------------------------|
c:-----------------------------------------------------------------|
d:-7-7-7-7-7-7-7-7-7-7--9-9-9-9-9-9-9-9-9-9------------------------|
E:-5-5-5-5-5-5-5-5-5-5--7-7-7-7-7-7-7-7-7-7------------------------|
F:-----------------------------------------------------------------|

COMO CADA TRES DE ABRIL ANA CREE QUE HOY POR FIN

a:-----------------------------------------------------------------|
b:-----------------------------------------------------------------|
c:----9-9-9-9---8-8-8---6-6-6---4-4-4---2-2-2-2-2----4-4-4-4-4-----|
d:- --7-7-7-7---6-6-6---4-4-4---2-2-2----------------2-2-2-2-2-----|
E:-----------------------------------------------------------------|
F:-----------------------------------------------------------------|
           EL VENDRA A BUSCARLA  Y AUN  ESPERA  EN  EL BURDEL



a:-----------------------------------|
b:-----------------------------------|
c:-----------------------------------|
d:-----------------------------------|
e:--4-5-4------4-5-2-4~--------------|
f:-2---------2-----------------------|
 Pero no venden nada

a:--------------------------------|
b:--------------------------------|
c:--------------------------------|
d:--------------------------------|
e:---4-5-4~-------4--5-2--4~------|
f:-2-------------2----------------|
 porque todo lo ofreció
a:--------------------------------|
b:--------------------------------|
c:--------------------------------|
d:--------------------------------|
e:---4-5-4~-------4-5-2--4~-------|
f:-2-------------2----------------|
 Princesa de    princesa en un cuento sin hadas

a:--------------------------------|
b:--------------------------------|
c:--------------------------------|
d:--------------------------------|
e:--4-5-4---------4-5-2--4~-------|
f:-2-------------2----------------|
Maldita sea  solo gritando versos

Guitarra 1
a:-------------------|
b:-------------------|
c:-------------------|
d:----2-0------------|
e:---2---4-----------|
f:-------------------| x10

no me he procupado por nacer
no me preocupo por morir

Guitarra 2
a:--------------------------------------------------------------|
b:--------------------------------------------------------------|
c:--------------------------------------------------------------|
d:- ------------------------------------------------------------|
E:-5-5-5-5-5-5-5-5-5-5-5-5-5-5-5-5-5-5-2-2-2-2-2-2-2-2-2-2-2-2--|
F:-3-3-3-3-3-3-3-3-3-3-3-3-3-3-3-3-3-3-3-3-3-3-3-3-3-3-3-3-3-3--|  X18

a:--------------------------------------------------------------|
b:--------------------------------------------------------------|
c:--------------------------------------------------------------|
d:-5-5-5-5-5-5-5-5-5-5-5-5-5-5-5-5-5-5---4-4-4-4-4-4-4-4-4-4-4-4|
E:-5-5-5-5-5-5-5-5-5-5-5-5-5-5-5-5-5-5---2-2-2-2-2-2-2-2-2-2-2-2|
F:-3-3-3-3-3-3-3-3-3-3-3-3-3-3-3-3-3-3--------------------------|  X18
De: brian muzo punk
?El solo no se pero ahí esta todo escuchala primero y luego tocala
Calificar esta versión:
Aviso: Este fichero es trabajo propio de su transcriptor y representa su interpretación personal de la canción. El material contenido en esta página es para exclusivo uso privado, por lo que se prohibe su reproducción o retransmisión, así como su uso para fines comerciales.