Yo Se, Papas Da Lingua (acordes)

Autor: Slobout | 29771 visualizaciones

bcdomimresimsol


 Intro
     Do       Sol          Mim        Sim
1|------------------1------------0----------2----------|     
2|-------------------0------------0----------3---------| Repite
3|----------------0------------0----------4------------|
4|----2-0-0-0-0-0------0-0-2-2--------4-4--------------| una vez 
5|----3-3-2-0-2--------2-0-2--------0-2----------------|    mas
6|---------------------3------------2------------------|

  
       Do  Sol     Mim          Re
   A-  Yo se, todo puede suceder
       Do  Sol     Mim          Re
       Yo se, nuestro amor va a vencer
       Mim     Sim         Do             Sol 
       Pediré, al cielo que estes aquí conmigo
       Mim     Sim       Do          Re
       Tiraré, al mar flores y volverás


        Do  Sol      Mim                Re
   B-   No se, porque me dijiste adios
        Do  Sol     Mim                  Re
        Despues, del beso que yo guarde
         Mim     Sim         Do             Sol 
        Pediré, al cielo que estes aquí conmigo
         Mim     Sim       Do          Re
        Tiraré, al mar flores y volverás


            Do          Sol 
   C-    You say good bye
           Do          Sol 
          And I say hello
          Do            Sol 
          You say good bye
           Do           Re
          And I say hello
 
   Intro
   Repite B
   Repite C

Termina con el intro y esta parte mas lenta: 

1|----------------1------------------|
2|----------------0------------------|
3|----------------0------------------|
4|----2—-0—-0--0--0------------------|
5|----3--3—-2--0--2------------------|
6|-----------------------------------|

 





Comentarios del colaborador: Quedo Pi Pi Cu Cu! ja. Bueno este tema me costo un poco sacarlo. Es mi primera publicación, la canción esta muy buena y la verdad que con estos acordes suena bastante bien. Espero que les guste mucho y se la dedico a todos mis amores jaja pero a uno en especial, si a vos mi amor, este canción es para vos Celma! Si supieras cuanto significas para mí. Cualquier duda o comentario a mi correo. Suerte!!

Calificar esta versión:
Aviso: Este fichero es trabajo propio de su transcriptor y representa su interpretación personal de la canción. El material contenido en esta página es para exclusivo uso privado, por lo que se prohibe su reproducción o retransmisión, así como su uso para fines comerciales.