Jenny Don't Be Hasty, Paolo Nutini (tablatura)

Autor: cami.beaTle.rock | 16423 visualizaciones



Main Riff
e|--2-------4---2--2-22--2-2--2-2---2----------------------|
B|--2-------5---3--3-33--3-3--3-3---2----------------------|
G|--2---6/7-6---4--2-22--2-4--2-2---2-2-0--2---------------|
D|--4---6/7-6---4--4-44--4-4--4-4---4-2-2--4---------------|
A|--4---4/5-4---2--2-55--2-2--2-5---4-0-2--4---------------|
E|--2-------x---x--x-xx--x-x--x-x---2---0--2---------------|

Intro :
Main Riff

Verse :
Main Riff

You said you'd marry me, if i was 23
But i'm one that you can't see if i'm only 18
Tell me who made these rules
Obviously not you
Who are you answering to?

Chorus :
1st Chorus

e|-5--55--55-55-7-2-22-------|
B|-5--55--55-55-7-2-22-77-77-|
G|-6--66--66-66-8-2-22-77-77-| x2
D|-7--77--77-77-9-4-44-77-77-|
A|-7--77--77-77-9-4-44-55-55-|
E|-5--55--55-55-7-2-22-------|

Ohhhhh jenny don't be hasty
No don't treat me like a baby
Let me take you where you'll let me
Because leaving just upsets me

2nd Chorus

e|-5--55--55-55-7-2-22-------|
B|-5--55--55-55-7-2-22-77-77-|
G|-6--66--66-66-8-2-22-77-77-| x3
D|-7--77--77-77-9-4-44-77-77-|
A|-7--77--77-77-9-4-44-55-55-|
E|-5--55--55-55-7-2-22-------|

e|-5--55-----------------------0--|
B|-5--55----------33-33-77-77--0--|
G|-6--66----------44-44-77-77--1--|
D|-7--77--6-66-66-44-44-77-77--2--|
A|-7--77--7-77-77-22-22-55-55--2--|
E|-5--55--4-44-44--------------0--|





Comentarios del colaborador: espero ke me entiendan gracias por mirar mi cancion

Calificar esta versión:
Aviso: Este fichero es trabajo propio de su transcriptor y representa su interpretación personal de la canción. El material contenido en esta página es para exclusivo uso privado, por lo que se prohibe su reproducción o retransmisión, así como su uso para fines comerciales.