Cowboys From Hell (intro), Pantera (tablatura)

Autor: lxisozzy | 31697 visualizaciones



1\----------------------------------------
2\----------------------------------------
3\-------------------------------------7-
4\---5--5--7-5-7-5-8-5-7-5--8h9----------
5\-7--7----------------------------------
6\---------------------------------------

1\-----------------------------------------
2\----------------------------------------
3\----------------------------------------
4\---5--5--7-5-7-5-8-5-7-5-----------
5\-7--7-------------------------6-5-3-0-
6\-----------------------------------------





Calificar esta versión:
Aviso: Este fichero es trabajo propio de su transcriptor y representa su interpretación personal de la canción. El material contenido en esta página es para exclusivo uso privado, por lo que se prohibe su reproducción o retransmisión, así como su uso para fines comerciales.