Build God, Then We'll Talk, Panic At The Disco (bajo)

Autor: shadow070894 | 21403 visualizaciones



Intro  
G|-------------|
D|4---4-2------|
A|--2-----5----|
E|----------3--|

Verso         
G|-------------------------------------------------------------------|
D|4----4-------7--------4---2----------4-------7-4-2-----------------|
A|---2-----7-------5------------5----2-----7---------5---------------|
E|-------5---5---3---3-3--2---1----------5---5---------33-22-11-2222-|

Coro
G|---------------------------|
D|---------------------------|x2
A|22-55-------22----55--22---|
E|------33-00----00----------|

Pre-Verso
G|----------------------------------------------------------------------------|
D|----------------------------------------------------------------------------|
A|--------------------------------------------------------------------------2-|
E|000-222-333-555-000-222-333-6-777-666-555-444-333-222-000-222222222222222---|

Verse
G|----------------------|
D|4-2-------------------|
A|----5--------------0--|
E|------3-3/2-2/1-1/2---|

G|---------------------------------------------------------------| 
D|--4-------7---------4---2-----------4------7--------4---2------|
A|2-----7-------5-------------5----2-----7-------5------------5--|
E|----5---5---3---3-3---2---1----------5---5---3---3-3--2---1----|

G|-------------------------------------------------------------|
D|--4-------7-4-2------4*---4-------7--------------------------|
A|2-----7---------5-------2-----7-------5----------------------|
E|----5---5---------3---------5---5---3---33-22-11-22-3333-222-|

Coro
G|---------------------------|
D|---------------------------|x2
A|22-55-------22----55--22---|
E|------33-00----00----------|

Bridge
G|------------------------------------------------------------------------------------------|
D|------------------------------------------------------------------------------------------|
A|------------------------------------------------------------------------------------------|
E|333333-777777-333333-777777-000-222-333-555-000-222-333-6-777-666-555-444-333-222-000-222-|

G|-------------------------------------|
D|-------------------------------------|
A|-----------------------------------5-|
E|777-666-555-444-333-222-000-2-3------|

Coro
G|---------------------------|
D|---------------------------|x2
A|22-55-------22----55--22---|
E|------33-00----00----------|

G|---------------------|
D|---------------------|
A|---------------------|
E|333333333333333-2222-|

Outro
G|----------------------------------------------------------|
D|----------------------------------------------------------|
A|----------------------------------------------------------|
E|333333-777777-333333-777777-000-222-333-555-000-222-333-6-|x2

G|----------------------------------------------------------------|
D|----------------------------------------------------------------|
A|------------------------------------------------------------4---|
E|777-666-555-444-333-222-000-222-777-666-555-444-333-222-000---2-|





Comentarios del colaborador: edite esta cancion y ya elimine todo error q encontre espero le sirva

Calificar esta versión:
Aviso: Este fichero es trabajo propio de su transcriptor y representa su interpretación personal de la canción. El material contenido en esta página es para exclusivo uso privado, por lo que se prohibe su reproducción o retransmisión, así como su uso para fines comerciales.