Disculpa Por Los Malos Pensamientos, Panda (bajo)

Autor: lokoguitar-rkr | 14667 visualizaciones

Intro/Verso
G|---------------------------------------------------
D|---------------------------------------------------
A|-111111111111--------------------------------------
D|-------------555555555555-111111111111-333333333333- x2

Precoro
G|------------------------------------------------------
D|------------------------------------------------------
A|-111111111111-----------------------------------------
D|-------------555555555555-111111111111-33333333-3-3-3-

Coro
G|---------------------------------------------------
D|---------------------------------------------------
A|-111111111111--------------------------------------
D|-------------555555555555-111111111111-333333333333

(aqui entra la bateria con la guitarra
y el bajo entra luego asi.....)
G|---------------------------
D|-1111111111111111111111111-
A|---------------------------
D|---------------------------

G|---3/5----3/5---3/5---3/5---3/5---3/5----3/5-
D|-33----33----33----33----33----33----33------
A|---------------------------------------------
D|---------------------------------------------

Verso
G|---------------------------------------------------
D|---------------------------------------------------
A|-111111111111--------------------------------------
D|-------------555555555555-111111111111-333333333333

Precoro
G|------------------------------------------------------
D|------------------------------------------------------
A|-111111111111-----------------------------------------
D|-------------555555555555-111111111111-33333333-3-3-3-

Coro 2
G|-------------------------------------------------------------
D|-------------------------------------------------------------
A|-111111111111------------------------------------------------
D|-------------555555555555-111111111111-33333333-3-3-3-3/10/8-

G|-----------------------------------
D|-----------------------------------
A|-111~111~--------------------------
D|----------555~555~111~111~333~333~- x2

'De rojo te vez bien, convina con tus ojos...'
G|------------------------------
D|------------------------------
A|-111111-----------------------
D|--------555555-111111-333333~-

G|------------------------
D|------------------------
A|-11---------------------
D|----555--1-1--3333--333-

Outro
G|-----------------------------
D|-----------------------------
A|-111111----------------------
D|--------555555-111111-333333-

G|--------------------------------
D|--------------------------------
A|-111111----------------------1~-
D|--------555555-111111-333333----

Comentarios del colaborador: suerteeeee .... genteee .......

Calificar esta versión:
Aviso: Este fichero es trabajo propio de su transcriptor y representa su interpretación personal de la canción. El material contenido en esta página es para exclusivo uso privado, por lo que se prohibe su reproducción o retransmisión, así como su uso para fines comerciales.