Honey And The Bee, Owl City (tablatura)

Autor: BAugusto | 34154 visualizaciones



------------------------------------------
---5-------------------5------------------
-------5---4---5-----------5---4---5------
-------------------5-------------------5--
-3---3---3---3---3---3---3---3---3---3----
------------------------------------------


-----------------------------------------------------------------
---5-------------------5---------------------3/1---3/1-----------
-------5---2---5---0-------5---2---5---0-----------------5-4-5---
-3---3---3---3---3---3---3---3---3---3----0/2---2/3---3/5--------
-----------------------------------------------------------------
-----------------------------------------------------------------

y los acordes creo que son F - G - Am - F - G - C





Comentarios del colaborador: http://www.youtube.com/watch?v=O1NVDISPdxg

Calificar esta versión:
Aviso: Este fichero es trabajo propio de su transcriptor y representa su interpretación personal de la canción. El material contenido en esta página es para exclusivo uso privado, por lo que se prohibe su reproducción o retransmisión, así como su uso para fines comerciales.