Hope Leaves, Opeth (tablatura)

Autor: Metalfan | 34263 visualizaciones



-------------------------------------------------------------------------------
                             Hope Leaves - Opeth
-------------------------------------------------------------------------------
Tabbed by: Matt Smith
Email: Matthew.A.Smith-1@ou.edu
Corrected by: Michael Salazar

Tuning: Standard (EADGBA), Capo 2

Intro/Verse
E|---------------0-------------------------------0---------------------------|
B|---------0-------0---0-------------------0-------0---0---------------------|
G|-----5-----5-------5---5-------------5-----5-------5---5-----5-------------|
D|---5---5-----5-------------5---5---5---5-----5-------------5---5-----------|
A|-0-------------------------------------------------------------------------|
E|-------------------------3---0---1-----------------------3-----------------|

"There is a wound that's always bleeding"  "There is a road I'm always walking" 
E|--------------------0-------0----------|--------------------0-------0----------|
B|------------0---------0-------0--------|------------0---------0-------0--------|
G|--------5-----5---------5-------5------|--------5-----5---------5-------5------|
D|------4---4-----4----------------------|------4---4-----4----------------------|
A|---------------------------------------|---------------------------------------|
E|----2-------------1-------1------------|----2-------------1-------1-------1----|

"And I know you'll never return to this place"
E|--------------------------------------------|
B|------------0-------------------------------|
G|-------5-------5------------0---------0-----|
D|----4-----4-------4------3----3----3-----3--|
A|--------------------------------------------|
E|-2--------------------1----------3----------|

Main Riff (Part A)
E|-------------------------------------------------------------------------|
B|-------------------------------------------------------------------------|
G|-----2--------0-----0-----0-------------2-------0-----0-----0----0-------|
D|---2---2----0-----0-----0------0------2---2---0-----0-----0--------------|
A|-0-------/5-----2-----3-------------0-------2-----3-----5-----7----10----|
E|-----------------------------3----0--------------------------------------|

Main Riff (Part B)
E|------------------------------------------------------------------------|
B|------------------------------------------------------------------------|
G|-----2--------0-----0-----0------------2-------0-----0-------7----------|
D|---2---2----0-----0-----0-----0------2---2---0-----0-------8---8--------|
A|-0-------/5-----2-----3------------0---------------------8-------8------|
E|----------------------------3----0---------1-----3-----6-----------6----|


 SOLO!!
E|---------------------------------------------------------|
B|-10----10-12-13-13/15--12h13h12-10--8h10h8---------------|
G|-------------------------------------------7-5-7--7/9----|
D|---------------------------------------------------------|
A|---------------------------------------------------------|
E|---------------------------------------------------------|

Then you play the Part A of the riff and play this
E|--------------------------------------------------|
B|-5-5-4--------------------------------------------|
G|-4-4-4----2-0-0-------------4--------2-4-5--------|
D|-2-2-2----2-0-0-----------5--------2--------------|
A|-0-0-0----0-2-3---------5--------2----------------|
E|--------------1-------3--------4------------------|

  SOLO!!
E|---------------------------------------------------------------------------|
B|---------------------------------------------------------------------------|
G|-4-5-4-2-4-0---------------------------------------------------------------|
D|-------------0-2-----------------------------------------------------------|
A|---------------------------------------------------------------------------|
E|---------------------------------------------------------------------------|

And then plat the Main Riff until the song fades out.

| /  slide up
| \  slide down
| h  hammer-on
| p  pull-off
| ~  vibrato
| +  harmonic
| x  Mute note
===============================================================================





Comentarios del colaborador: this tab actually is not mine, it had some mistakes, so i corrected it for you... hope you enjoy it!

Calificar esta versión:
Aviso: Este fichero es trabajo propio de su transcriptor y representa su interpretación personal de la canción. El material contenido en esta página es para exclusivo uso privado, por lo que se prohibe su reproducción o retransmisión, así como su uso para fines comerciales.