Credence, Opeth (tablatura)

Autor: Metalfan | 18307 visualizaciones



OPETH - Credence
Album: My Arms, Your Hearse
Copyright 1997, Candlelight

   key  h - hammer on
        p - pull off
        / - slide
        t - tremolo
      ... - echo
       () - silently, ghost note
       [] - harmonics
        X - repeat X times
        * - optional (it's optional because its not part of the song, I invented it)

 Intro
|--------------------------------------------------------------------------|
|----------0-----------------0-------------------0-----------------0-------|
|-------5-----5-----------5-----5-------------0-----0-----------0-----0----|
|----7-----------7-----7-----------7-------8-----------8-----8-----------8-|
|-0-----------------0-----------------0h6-----------------6----------------|
|--------------------------------------------------------------------------|

|--------3-----0-------0---------------------------------------------------|
|--------------2-------2--------0-----0-----0-----0------------------------|
|--0-----3-------------------3-----3-----3-----3-----3---------------------|
|--------------------------------------------------------------------------|
|--------------------------------------------------------------------------|
|--------------------------------------------------------------------------|

|--------------------------------------------------------------------------|
|----------0-----------------0-------------------0-----------------0-------|
|-------5-----5-----------5-----5-------------0-----0-----------0-----0----|
|----7-----------7-----7-----------7-------8-----------8-----8-----------8-|
|-0-----------------0-----------------0h6-----------------6----------------|
|--------------------------------------------------------------------------|

|------------------3----------------0-----------------6--------------------|
|------------------3-------------------0--------------5--------------------|
|--0-------------0---------0--------------3-----------3--------------------|
|--------4-----1--------------4--------------2-----------------------------|
|-----------------------------------------------1--------------------------|
|--------------------------0-----0-----------------0-----------------------|

Bridge
|--5--------5--------5-----------5-----------------------------------|
|-----6--------6--------5--5--------5-----------5--------0--s5----3--|
|--------7--------6--------5-----------5-----5--5-----------s5----4--|
|--------------------------------7--------6-----------6--------------|
|--5--------4--------3-----------------------------7-----------------|
|--------------------------------------------------------------------|
|                                   |
|--8-p5--------------5--------------|
|--------5--------8-----5-h8--8s10--|
|-----------5-h7--------------------|
|-----------------------------------|
|-----------------------------------|
|-----------------------------------|


1:32 - 2:15  Play this 6 times
|---------------------------------------------------------------------|
|----------1s3--0--1--------1s3--0-----------0----0h1--1--------------|
|-------2--2s4--0--2--------2s4--0--------0--0----0h2--2--------------| Lead Guitar
|----2-------------------2-------------2------------------------------|
|-0-------------------0---------------------------------------3p2p0h2-|
|-----------------------------------0---------------------0h1---------|
|                                                                     |
|---------------------------------------------------------------------|
|----------1s3--0--1--------1s3--0-----------0----0h1--1----0---------|
|-------2--2s4--0--2--------2s4--0--------0--0----0h2--2----0----0----| Rhythm Guitar
|----2-------------------2-------------2------------------------------|
|-0-------------------0-----------------------------------------------|
|-----------------------------------0---------------------------------|


Play this 6 times
|--------------------------------------------5----3----------------|
|---------------------------------------5s6--6----5----------------|
|--------2--2h3----2-------0--0--0h2-------------------0--2--------| Lead Guitar
|-----0--------------------3--3------------------------0-----2--3--|
|--1--------------------0---------------------------------------5--|
|------------------------------------------------------------------|
|                                                                  |
|--------------------------0--0--0-----------5----3----------------|
|--------------------------2--2--0------5s6--6----5----3-s5--1--3--|
|--------2--2h3----2-------0--0--0------------------------------2--| Rhythm Guitar
|-----0------------------------------------------------3-s5--2--3--|
|--1--------------------0------------------------------------------|
|------------------------------------------------------------------|


Play this part 4 times
|---------------------------------------------------------------------|
|----------1s3--0--1--------1s3--0-----------0----0h1--1--------------|
|-------2--2s4--0--2--------2s4--0--------0--0----0h2--2--------------| Lead Guitar
|----2-------------------2-------------2------------------------------|
|-0-------------------0---------------------------------------3p2p0h2-|
|-----------------------------------0---------------------0h1---------|
|                                                                     |
|---------------------------------------------------------------------|
|----------1s3--0--1--------1s3--0-----------0----0h1--1----0---------|
|-------2--2s4--0--2--------2s4--0--------0--0----0h2--2----0----0----| Rhythm Guitar
|----2-------------------2-------------2------------------------------|
|-0-------------------0-----------------------------------------------|
|-----------------------------------0---------------------------------|


Play this one 4 times
|-------------------------------------*-------5----3----------------|
|-------------------------------------|--5s6--6----5----------------|
|--------2--2h3----2-------0--0--0h2--|-----------------0--2--------| gtr.1
|-----0--------------------3--3-------|-----------------0-----2--3--|
|--1--------------------0-------------|--------------------------5--|
|-------------------------------------|-----------------------------|
|                                                                   |
|--------------------------0--0--0----*-------5----3----------------|
|--------------------------2--2--0----|--5s6--6----5----3-s5--1--3--|
|--------2--2h3----2-------0--0--0----|--------------------------2--| gtr.2
|-----0-------------------------------|-----------------3-s5--2--3--|
|--1--------------------0-------------|-----------------------------|
|-------------------------------------|-----------------------------|

The last time is modified this way
|---------------------------------------------------|
|------------------2--------------------------------|
|--------2--2h3-------1-----------------------------|
|-----0-----------------4--3h4p3h4p3h4p3------------|
|--1----------------------------------------5--5s7--|
|----------------------------------------------0----|


Play this until fades out
|----------3--3--0--0--2--2--|
|----------5--5--3--3--3--3--|
|----------4--4--4--4--2--2--| Rhythm Guitar
|----------------------------|
|----------------------------|
|--0--(0)--------------------|


Solo
First these mini solos   | Optional | Until it fades out
|--0-----------------[12]|-----14---|---------------------------------------------------|
|--0---------------------|--12------|-------3/5-3----0h1h0...---3/5---------------------|
|--0-----------11h12-----|*--------*|:---------------------4------ 4/2-----------------:| Lead Guitar
|--4---------------------|*--------*|:-----------------------------------5-4-4h5p4/2---:|
|--7---------------------|----------|---------------------------------------------------|
|--0---------------------|----------|---0--------------------(0)------------------------|





Comentarios del colaborador: i repeat, the part with " ** " it's optional, i invented it while playing the song... don't worry, it sounds great!

Calificar esta versión:
Aviso: Este fichero es trabajo propio de su transcriptor y representa su interpretación personal de la canción. El material contenido en esta página es para exclusivo uso privado, por lo que se prohibe su reproducción o retransmisión, así como su uso para fines comerciales.