Re:make, One Ok Rock (tablatura)

Autor: LenOkasaki | 19147 visualizaciones

-------------------------------------------------------------------
-------------------------------------------------------------------
-------9-9-9-------9-9-9-9-9-9-9-9-------9-9-9-------9-9-9-9-9-9-9-9--
-----x-----------x---------------------x-----------x---------------(x2)
-9-9-x-7-7-7-9-9-x-7-7-7-7-7-7-7-7-5-5-x-7-7-7-7-7-x-7-7-7-7-7-7-7-7-
-7-7-x-------7-7-x-----------------3-3-x-------5-5-x---------------

Verse:
 Bm       G        D        A
-------------------------------------------------------------------
-------------------------------------------------------------------
----9--7-----9--7-----9--7-----9--6--------------------------------
-9--------9--------7--------7--------------------------------------
-------------------------------------------------------------------
-------------------------------------------------------------------


 Bm                        G                         Em
 m m       m   m   m       m m       m   m   m       m m       
-----------------------------------------------------------------
-------------7---------------------------------------------------
-----7-6h7-7---7-7-7-6--7--------------7-------------------------
-------------------------------9-7h9-9---9-9-9-7--9--------------
-------------------------------------------------------5-4h5--7--5-5-4-4-4-5-- <-esta es la misma linea de arririba despues del 7
-7-7-----------------------3-3-----------------------0-0-------0-0- 

 F#
 m m   m m   m m   m m   m m
-----------------------------------------------------------------
-----------------------------------------------------------------
-----------------------------------------------------------------
-------------4-4-4-4-4-4-4-4-4-----------------------------------
-----4-----4-4-4-4-4-4-4-4-4-4-----------------------------------
-2-2---2-2---2-2-2-2-2-2-2-2-2-----------------------------------

Solo:
 Bm        A     Bm        Em
-------------------------------
-------------------------------
-------9-----------------------
-9-9-x-9-x-7-7---9-9-x-5-x-2-2- (x2)
-9-9-x-7-x-7-7---9-9-x-5-x-2-2-
-7-7-x---x-5-5---7-7-x-3-x-0-0-

 Bm            G                      A
-----------------------------------------------------------------
-----------------------------------------------------------------
-4--4-4--4-4-4-14-14-14-12-12-12-11\9-9--9-9--9-9-9-9--6-7-6-----
-4--4-4--4-4-4-----------------------------------------------7---
-2--2-2--2-2-2-12-12-12-10-10-10-9\7--7--7-7--7-7-7-7--4-5-4-----
-------------------------------------------------------------5---

 Bm            G                       E
-----------------------------------------------------------------
-----------------------------------------------------------------
-4--4-4--4-4-4-14-14-14-12-12-12-11-11-13\9--9-9-9-9-9-9-9-9-9-9-9
-4--4-4--4-4-4---------------------------------------------------
-2--2-2--2-2-2-12-12-12-10-10-10-9--9--11\7--7-7-7-7-7-7-7-7-7-7-7

 Bm            G                      A             F#
-----------------------------------------------------------------
------------------------------------------------------------------4--4-4--4-4-4-14-14-14-12-12-12-11\9-9--9-9--9-9-9-6-6-6-9-9-9-6
-4--4-4--4-4-4---------------------------------------------------
-2--2-2--2-2-2-12-12-12-10-10-10-9\7--7--7-7--7-7-7-4-4-4-7-7-7-4

 G                                        A
-----------------------------7h9h10---/17-17p14------14-17p14----14-17
---------------------5h7h8/10------------------15--15--------15-15
----------------4h6h7----------------------------14------------14
-----------4h5h7-------------------------------------------------
------4h5h7------------------------------------------------------
-3h5h7-----------------------------------------------------------

-----------------------------------
-----------------------------------
-------9-9-9-------9-9-9-9-9-9-9-9-
-----x-----------x----------------- (x2)
-9-9-x-7-7-7-9-9-x-7-7-7-7-7-7-7-7-
-7-7-x-------7-7-x-----------------

n_n"
Calificar esta versión:
Aviso: Este fichero es trabajo propio de su transcriptor y representa su interpretación personal de la canción. El material contenido en esta página es para exclusivo uso privado, por lo que se prohibe su reproducción o retransmisión, así como su uso para fines comerciales.