A Little Pain, Olivia Lufkin (tablatura)

Autor: yakkito | 27580 visualizaciones

A Little Pain

standard tuning EADGBe

Intro
e|---0-------0-------0-------0------|
b|-----3-------3-------3-------3----|
g|--0-0-----0-0-----0-0-----0-0-----|
d|-2-------0-----0--------0---------|
a|----------------3-----------------|
E|-------------------------3--------|

Verse
e|---0-------0-------0-------0---|
b|-----3-------3-------3-------3-|
g|--0-0-----0-0-----0-0-----0-0--|
d|-2-----------------------------|
a|--------3----------------------|
E|---------------3-------3-------|


Prechorus

Am7
Tsuyoku naru tame,
CM7
Wasureta egao
      Dsus2                D
Kitto futari nara, torimodosu

Kidzuite


Chorus
Cadd9      G
  I'm here waiting for you
D                  Em             Cadd9
Ima to wa chigau mirai ga atte mo
Cadd9    G
I'm here waiting for you
D              Em   Cadd9
Sakebi tsudzukete
Cadd9 G
Kitto kokoro wa,
D                 Em
Tsunagu ito wo tagutteru
Cadd9  G
Ano    koro no watashi,
D           Em
Me wo samasu you ni
   Cadd9   Dsus2
No need to cry

Cadd9 G D Em
Cadd9 G D Em
Cadd9 G D Em Dsus2


Verse
e|---0-------0-------0-------0---|
b|-----3-------3-------3-------3-|
g|--0-0-----0-0-----0-0-----0-0--|
d|-2-----------------------------|
a|--------3----------------------|
E|---------------3-------3-------|

Prechorus

Am7
Koe ga kikoeru,
CM7
me o tojireba
          Dsus2             D
chiisa na itami sae itoshikute

mitsumete

Chorus
Cadd9       G
   I'm here waiting for you
D                  Em           Cadd9
Kaze ni fukare,Hitori mayotte mo
Cadd9 G
I'm   here waiting for you
D            Em   Cadd9
Sora wo miagete
Cadd9 G
Zutto kokoro wa,
D                 Em     Cadd9
Te wo hirogete mamotteru
Cadd9 G
Ano   koro no kimi ga,
D            Em
Furikaeru made

No need to cry

Cadd9 G D Em
Cadd9 G D Em
Cadd9 G D Em
Cadd9 G D Em
Cadd9 G D Em Dsus2


Cadd9
(Feel something Feel nothing
Dsus2          Em
Listen closely Listen closely)
Cadd9     G
Wide open ears
   Cadd9          G
Disarm the dream tickler
                Cadd9
In the constant moment
Cadd9
(You will find me Where it's quiet
G
Listen closely Listen closely)
Cadd9
Let the blood flow
        G       Dsus2
Through all the spaces

Of the universe

kidzuite


Chorus
Cadd9      G
  I'm here waiting for you
D                  Em             Cadd9
Ima to wa chigau mirai ga atte mo
Cadd9    G
I'm here waiting for you
D              Em   Cadd9
Sakebi tsudzukete
Cadd9 G
Kitto kokoro wa,
D                 Em
Tsunagu ito wo tagutteru
Cadd9  G
Ano    koro no watashi,
D           Em
Me wo samasu you ni

No need to cry


Cadd9 G D Em
Cadd9 G D Em
Cadd9 G D Em
Cadd9 G D Em
Cadd9 G D Em
Cadd9 G D Em

e|--------0----------------------|
b|------3---3--------------------|
g|0---0--------------------------|
d|--2----------------------------|
a|-------------------------------|
E|-------------------------------|
Calificar esta versión:
Aviso: Este fichero es trabajo propio de su transcriptor y representa su interpretación personal de la canción. El material contenido en esta página es para exclusivo uso privado, por lo que se prohibe su reproducción o retransmisión, así como su uso para fines comerciales.