Todo Pasa, Ojas (tablatura)

Autor: lukiss | 38912 visualizaciones



INTRO:

e|---------------|
B|---------------|
G|--8-888-x8-x8--|
D|--8-888-x8-x8--| x 4
A|--6-666-x6-x6--|
E|---------------|

Todo fue y todo pasa

e|-----------------|
B|-----------------|
G|--8-8-x8-x8---8--|
D|--8-8-x8-x8---8--| x8
A|--6-6-x6-x6h8-6--|
E|-----------------|

VERSO 1

         x3                 x1                  x4
e|---------------|----------------|-----------------|
B|---------------|----------------|-----------------|
G|--8-888-x8-x8--|--888810101010--|--8-8-x8-x8---8--|
D|--8-888-x8-x8--|--88888-8-8-8---|--8-8-x8-x8---8--| x2
A|--6-666-x6-x6--|----------------|--6-6-x6-x6h8-6--|
E|---------------|----------------|-----------------|

Todo fue y todo pasa
tus palabras vienen y se van
ya no hay nada
fuimos todo y no somos nada
tus siempres se convierten en jamas
ya no hay nada

CORO

e|------------|---------|----------------|----------------|
B|------------|---------|----------------|----------------|
G|------------|------7--|-------5--------|-------------5--|
D|--10----10--|--8------|----------4-----|--------5-------|
A|--10-10-----|--8-8----|----6--------6--|--(6)-6---6-----|
E|--8---------|--6------|--4-------------|----------------|

    Las miradas hablan     no digas nada

e|------------|---------|----------------|
B|------------|---------|----------------|
G|------------|------7--|-------5--------|
D|--10----10--|--8------|----------4-----|
A|--10-10-----|--8-8----|----6--------6--|
E|--8---------|--6------|--4-------------|

    Las miradas hablan     no digas nada   solo dejate llevar


VERSO 2

e|---------------|
B|---------------|
G|--8-888-x8-x8--|
D|--8-888-x8-x8--| x4
A|--6-666-x6-x6--|
E|---------------|

         x3                 x1                  x4
e|---------------|----------------|-----------------|
B|---------------|----------------|-----------------|
G|--8-888-x8-x8--|--888810101010--|--8-8-x8-x8---8--|
D|--8-888-x8-x8--|--88888-8-8-8---|--8-8-x8-x8---8--| x2
A|--6-666-x6-x6--|----------------|--6-6-x6-x6h8-6--|
E|---------------|----------------|-----------------|

Todo fue y todo pasa
tus palbras vuelan ya no estan
ya no hay nada
fuimos todo y no somos nada
tus siempres se convierten en jamas
ya no hay nada (no hay nada)


CORO

e|------------|---------|----------------|----------------|
B|------------|---------|----------------|----------------|
G|------------|------7--|-------5--------|-------------5--|
D|--10----10--|--8------|----------4-----|--------5-------|
A|--10-10-----|--8-8----|----6--------6--|--(6)-6---6-----|
E|--8---------|--6------|--4-------------|----------------|

    Las miradas hablan     no digas nada

e|------------|---------|----------------|
B|------------|---------|----------------|
G|------------|------7--|-------5--------|
D|--10----10--|--8------|----------4-----|
A|--10-10-----|--8-8----|----6--------6--|
E|--8---------|--6------|--4-------------|

    Las miradas hablan     no digas nada   solo dejate llevar

e|------------|
B|------------|
G|--88888888--|
D|--88888888--|
A|--66666666--|
E|------------|


FINAL

Eb5 Bb5 G#5 G#5

e|--18-16-15-16-15-16-----|--18-16-15-16-15-16-18--|
B|--------------------16--|------------------------|
G|------------------------|------------------------|

Solo dejate llevar
solo dejate llevar
solo dejate llevar

e|------------|---------|----------------|----------------|
B|------------|---------|----------------|----------------|
G|------------|------7--|-------5--------|-------------5--|
D|--10----10--|--8------|----------4-----|--------5-------|
A|--10-10-----|--8-8----|----6--------6--|--(6)-6---6-----|
E|--8---------|--6------|--4-------------|----------------|

    Las miradas hablan     no digas nada

e|------------|---------|----------------|
B|------------|---------|----------------|
G|------------|------7--|-------5--------|
D|--10----10--|--8------|----------4-----|
A|--10-10-----|--8-8----|----6--------6--|
E|--8---------|--6------|--4-------------|

    Las miradas hablan     no digas nada   solo dejate llevar

e|---------------|
B|---------------|
G|--8-888-x8-x8--|
D|--8-888-x8-x8--| x4
A|--6-666-x6-x6--|
E|---------------|







Calificar esta versión:
Aviso: Este fichero es trabajo propio de su transcriptor y representa su interpretación personal de la canción. El material contenido en esta página es para exclusivo uso privado, por lo que se prohibe su reproducción o retransmisión, así como su uso para fines comerciales.