No Hay Futuro No Hay Esperanza, Oi! The Arrase (tablatura)

Autor: mr.flame | 20906 visualizaciones



No hay futuro no hay esperanza-Oi! The Arrase

Intro:
e|--------------------------------|
b|--------------------------------|
g|--7-7-7-6-6-6-7-7-7-6-6-7-7-6-6-| 6 veces 
D|--------------------------------| 
A|--------------------------------|
E|--------------------------------|

e|--------------------------------------------------------------|--------------------------------------------------------------|
b|--8-8-8-7-7-7-8-8-8-7-7-8-8-7-7-8-8-8-7-7-7-8-8-8-7-7-8-8-7-7-|--------------------------------------------------------------|
g|--------------------------------------------------------------|---7-7-7-6-6-6-7-7-7-6-6-7-7-6-6-7-7-7-6-6-6-7-7-7-6-6-7-7-6-6|
D|--------------------------------------------------------------|--------------------------------------------------------------|
A|--------------------------------------------------------------|--------------------------------------------------------------|
E|--------------------------------------------------------------|--------------------------------------------------------------|

e|--------------------------------------------------------------|--------------------------------------------------------------|
b|--8-8-8-7-7-7-8-8-8-7-7-8-8-7-7-8-8-8-7-7-7-8-8-8-7-7-8-8-7-7-|--------------------------------------------------------------|
g|--------------------------------------------------------------|---7-7-7-6-6-6-7-7-7-6-6-7-7-6-6-7-7-7-6-6-6-7-7-7-6-6-7-7-6-6|
D|--------------------------------------------------------------|--------------------------------------------------------------|
A|--------------------------------------------------------------|--------------------------------------------------------------|
E|--------------------------------------------------------------|--------------------------------------------------------------|

e|-----------------------------------------------------------------------------|--------------------------------------------------------------|
b|--8-8-8-7-7-7-8-8-8-7-7-8-8-7-7-10-10-10-10-10-10-10-10-10-10-10-10-10-10-10-|--------------------------------------------------------------|
g|-----------------------------------------------------------------------------|---7-7-7-6-6-6-7-7-7-6-6-7-7-6-6-7-7-7-6-6-6-7-7-7-6-6-7-7-6-6|
D|-----------------------------------------------------------------------------|--------------------------------------------------------------|
A|-----------------------------------------------------------------------------|--------------------------------------------------------------|
E|-----------------------------------------------------------------------------|--------------------------------------------------------------|

e|-----------------------------------------------------------------------------|
b|--8-8-8-7-7-7-8-8-8-7-7-8-8-7-7-10-10-10-10-10-10-10-10-10-10-10-10-10-10-10-|
g|-----------------------------------------------------------------------------|
D|-----------------------------------------------------------------------------|
A|-----------------------------------------------------------------------------|
E|-----------------------------------------------------------------------------|






Parte 1:
e|------------------------|
b|------------------------|
g|--7---------------------| 2 veces
D|--7-----7-----9-----5---|
A|--5-----7-----9-----5---|
E|--------5-----7-----3---|





Parte 2:
e|------------------------|
b|------------------------|    
g|--7---------------------| 
D|--7-----7-----9-----5---|
A|--5-----7-----9-----5---|
E|--------5-----7-----3---|

Desde que nacemos nos dicen lo qe hay que hacer 
jodidos cabrones no teneis ni idea de 
ke nacemos libres y libres queremos ser 
de esta buena ostia lo conseguire


e|------------------------|
b|------------------------|    
g|--7---------------------| 
D|--7-----7-----9-----5---|
A|--5-----7-----9-----5---|
E|--------5-----7-----3---|

imponer vuestras leyes y vuestra educacion 
siempre jodiendo lo que mas nos gusta acer 
qienes sois vosotros para decirme a mi 
lo qe esta mal y lo que esta bien

e|------------------------|
b|------------------------|    
g|--7---------------------| 
D|--7-----7-----9-----5---|
A|--5-----7-----9-----5---|
E|--------5-----7-----3---|

no me importa lo que digan los demas 
qiero vivir al margen de la ley 
sabotear tus leyes y ser un delinkuente 
reirme de las calles y sus perros guardianes


e|------------------------|
b|------------------------|    
g|--7---------------------| 
D|--7-----7-----9-----5---|
A|--5-----7-----9-----5---|
E|--------5-----7-----3---|

no conseguireis detener mi rebeldia 
lucharemos dia dia asta el fin de nuestras vidas 
no sere uno mas de tu absuluta mayoria 
engañas a la gente con un falso futuro 





Estribillo:
e|------------------------|
b|------------------------|    
g|--------------7---------| 
D|--5-----7-----7-----9---|
A|--5-----7-----5-----9---|
E|--3-----5-----------7---|

no hay futuro no hay esperanza 
para toda la gente que vive en un sistema en el q

e|------------------------|
b|------------------------|    
g|--------------7---------| 
D|--5-----7-----7-----9---|
A|--5-----7-----5-----9---|
E|--3-----5-----------7---|

no hay futuro no hay esperanza 
en una sociedad la que te pisan media vida 


e|------------------------|
b|------------------------|    
g|--------------7---------| 
D|--5-----7-----7-----9---|
A|--5-----7-----5-----9---|
E|--3-----5-----------7---|

no hay futuro no hay esperanza 
reglas y prohibiciones siempre estan en tu camino

e|----------------------------------------|
b|----------------------------------------|    
g|--------------7-7-7----6-6-6----7-7-7---| 
D|--5-----7-----7-7-7----6-6-6----7-7-7---|
A|--5-----7-----5-5-5----4-4-4----5-5-5---|
E|--3-----5-------------------------------|

no hay futuro no hay esperanza 
lo uniko ke kiero es verlo todo destruido 



Seguidamente se repite la “Parte 2” (desde k nacemos…) i otra vez el “Estribillo”, después del estribillo se repite la parte 1, 2 veces, como al principio i después viene el solo.


Solo:
e|--------------------------------------------------------------------------|------------------------------------------------------------------------5-------------5-----|
b|--------------------------------5-5-5-5-5-5-5-5-7-5-7-5-7-5-------7-7-5---|----5-------------------------------5-5-5-5-5-5-5-5-7-5-7-5-7-5-------7---7-5---7---8---8-7-|
g|--7-7-7-6-6-6-7-7-7-6-6-7-7-6-6-----------------------------7-7-7-------7-|--7---7-7-7-6-6-6-7-7-7-6-6-7-7-6-6-----------------------------7-7-7---------7---7---------|
D|--------------------------------------------------------------------------|--------------------------------------------------------------------------------------------|
A|--------------------------------------------------------------------------|--------------------------------------------------------------------------------------------|
E|--------------------------------------------------------------------------|--------------------------------------------------------------------------------------------|



e|--10-------10-------10----12-------12----12-12-12-12-12-12-14-12-12-14-12-12-14-12-10-10-10-14-14-12-10-|-12-10-10-10-10-10-10-10-10-10-10-10-10-10-10-14-14-12-10-| 
b|-----10-10----10-10----10----10-10----10----------------------------------------------------------------|----------------------------------------------------------|
g|--------------------------------------------------------------------------------------------------------|----------------------------------------------------------|
D|--------------------------------------------------------------------------------------------------------|----------------------------------------------------------|
A|--------------------------------------------------------------------------------------------------------|----------------------------------------------------------|
E|--------------------------------------------------------------------------------------------------------|----------------------------------------------------------|



Estribillo:
e|------------------------|
b|------------------------|    
g|--------------7---------| 
D|--5-----7-----7-----9---|
A|--5-----7-----5-----9---|
E|--3-----5-----------7---|

no hay futuro no hay esperanza 
para toda la gente que vive en un sistema en el q

e|------------------------|
b|------------------------|    
g|--------------7---------| 
D|--5-----7-----7-----9---|
A|--5-----7-----5-----9---|
E|--3-----5-----------7---|

no hay futuro no hay esperanza 
en una sociedad la que te pisan media vida 


e|------------------------|
b|------------------------|    
g|--------------7---------| 
D|--5-----7-----7-----9---|
A|--5-----7-----5-----9---|
E|--3-----5-----------7---|

no hay futuro no hay esperanza 
reglas y prohibiciones siempre estan en tu camino

e|----------------------------------------|
b|----------------------------------------|    
g|--------------7-7-7----6-6-6----7-7-7---| 
D|--5-----7-----7-7-7----6-6-6----7-7-7---|
A|--5-----7-----5-5-5----4-4-4----5-5-5---|
E|--3-----5-------------------------------|

no hay futuro no hay esperanza 
lo uniko ke kiero es verlo todo destruido 




La ultima nota se alarga hasta q termina la cancion. Gracias a todos, espero q os guste.





Comentarios del colaborador: La he sacado de oido, espero q os guste!

Calificar esta versión:
Aviso: Este fichero es trabajo propio de su transcriptor y representa su interpretación personal de la canción. El material contenido en esta página es para exclusivo uso privado, por lo que se prohibe su reproducción o retransmisión, así como su uso para fines comerciales.