Estamos Pariendo, O`connor (tablatura)

Autor: lucho24 | 42264 visualizaciones



Afinacion normal con la sexta en Re (D)

Intro
----------------------------------------------------------
----------------------------------------------------------
----------------------------------------------------------
------------------------------------------------------X2--
-0--0-4-5-6-0--0--0-4-5-6--0--0-4-5-6--0--0-4-5-6--0------
-0--0-4-5-6-0--0--0-4-5-6--0--0-4-5-6--0--0-4-5-6--0------

Estribillo
-----------------------------
-----------------------------
-----------------------------
-7--------6------------------
-5--5--3--4------X2----------
-0--5--3---------------------

Intro X2
estribillo X2

Pre solo
------------------------------------
------------4b-0-4b-0-4-------------
------------4b-0-4b-0-4-------------
------------4b-0-4b-0-4----X4-------
-0--4-5-6-0----0----0---------------
-0--4-5-6-0----0----0---------------

Acompañamiento del solo igual al Estribillo X2

Solo.
 Tremolo
---------13b-15b-15-13------------------------------------
-14/////----------------15b-13----------------------------
-------------------------------14-12----------12h14p12----
-------------------------------------14-12-14-------------
----------------------------------------------------------
----------------------------------------------------------

----------------------------------------------------------
---10h13p10----10h13p10----10h13p10----10h13p10-----------
-12b--------12b---------12b---------12b--------12b--------
----------------------------------------------------------
----------------------------------------------------------
----------------------------------------------------------

---------15h20p15---15h20p15---15h20p15--15h20p15---15-20b-20b
-------15---------17---------17--------17---------17----------
-----17-------------------------------------------------------
---17---------------------------------------------------------
-18-----------------------------------------------------------
--------------------------------------------------------------

Intro X2
Estribillo X2
Pre solo X2





Comentarios del colaborador: cualquier cosa Lucho_el_fortin@hotmail.com

Calificar esta versión:
Aviso: Este fichero es trabajo propio de su transcriptor y representa su interpretación personal de la canción. El material contenido en esta página es para exclusivo uso privado, por lo que se prohibe su reproducción o retransmisión, así como su uso para fines comerciales.