Del Camionero, O`connor (tablatura)

Autor: Lucho24 | 21692 visualizaciones



O Connor 
Del camionero (TAB)  Transcripción de Lucho El Metalero
lUCHO_EL_FORTIN@hotmail.com  
AUTOR: O Connor  corregir
ALBUM: Vive siempre (2003)
 ocon0111  

INTRO:
Em C#9 Em G
e|--------0---------------4---------------0-------3---3---------|X3
B|----------0-----------4---4---------------0-----0-0---0----0--|
G|------------0-------6-------6-------------------0--------0----|
D|------2-----------6-----------6-------2---------0-------------|
A|----2-----------4-------------------2-----------2-------------|
E|--0-------------------------------0---------0-2-3-------------|

Intro como base:

Conduciendo mi camión
estoy viendo asomar el sol.
Respirando el amanecer,
las distancias intento vencer.

D / Em
El insomnio de una noche sin luna,
e|-------2---------------0-------------------|
B|-3-------3---------------0-----------------|
G|-2--2------2-------0-------0---------------|
D|-0---------------2-------------------------|
a|-----------------2-------------------------|
E|-------------------------------------------|

G / D / Em
se va muriendo.
e|--3---2---0------0-----------------------------
B|--0---3---0-------0----------------------------
G|--0---2---0---0-----0---------------------------
D|--0---0---2—2---------------------------------
A|--2-------2----------------------------------
E|--3-------0----------------------------------

D / Em
Y el día nace mostrando la ruta
e|-------2---------------0-------------------|
B|-3-------3---------------0-----------------|
G|-2--2------2-------0-------0---------------|
D|-0---------------2-------------------------|
a|-----------------2-------------------------|
E|-------------------------------------------|

G / D / Em 
que andaré.
e|--3---2---0------0-------------------------|
B|--0---3---0-------0------------------------|
G|--0---2---0---0-----0----------------------|
D|--0---0---2—2------------------------------|
A|--2-------2--------------------------------|
E|--3-------0--------------------------------|

Inter
Em / D / C#9 / G /
e|------0---------------3------------------4-----------------|
B|--------0---------2------2-------------4----4----------3---|
G|----0-----0-------3---------3--------6--------6--------4---|
D|-2----------------0----------------6------------6------5---|
a|-2-------------------------------4----------------4----5---|
E|-------------------------------------------------------3---|

Base:
Em E5 C5# D5 E5 Em E5 G5
e|----------------------------------+--------------------------|
B|----------------------------------+--------------------------|
G|--------/9~-----------------------+--------/9--12-12-12-12--|
D|--2-----/9~----------------7---9--+--2-----/9--12-12-12-12--|
A|--2-----/7~--4-4-4-4-4-4-4/5-5/7--+--2-----/7--10-10-10-10--|
E|--0-0-0---------------------------+--0-0-0-------------------|

Se alimenta mi corazón,
del constante rugir del motor,
esforzándose por rodar
dieciocho ruedas sin lamentar.
D5 E5
En las horas del rural sacrificio,
G5 / F5# / Em
nos están viendo,
D5 Em G5 / F5#
como un sueño inalcanzable, perdiéndonos...
E5 / D5 / C5# / C5
Perdiéndonos

E5 A5#
en el constante llevar y traer
E5 A5#
pesadas cargas ganando el sustento.
E5 A5#
Conduciendo un camión
E5 A5#
yo me echo a pleno viviendo este sueño
C5# A5
Al que mi vida entregué,
C5# A5
como mi padre hizo ayer.
C5# A5 G5 B5
En él está mi felicidad, no necesito más
E5 A5#
por eso canto lo que siento, en un camión.
E5 / A5#

Mediodía en la ruta es
y yo intentando distancias vencer.
Pienso en los muchos que sabrán
mi canto guardar
Sólo de sentirse contentos en el camión
vivendo el sueño en el que estoy.

SOLO GUITARRA 1 DE ALEJANDRO COTA


Haciendo un alto al atardecer
bajo unos árboles, guachos de tiempo.
Junto a mi camión
nos ve descansar el campo abierto.

En las banquinas me enredé
y sólo mi camión lo sabe bien,
las rutas y su soledad
mi canto guardarán

Sólo para verme contento
en un camión viviendo el sueño.
Al que mi vida entregué
como mi padre hizo ayer
En el está mi felicidad, no necesito más
por eso canto lo que siento, en un camión.

SOLO 2 DE ALEJANDRO COTA

Base del solo y final [ E5 / D5 / C5# / C5 ]X4 Em


 





Calificar esta versión:
Aviso: Este fichero es trabajo propio de su transcriptor y representa su interpretación personal de la canción. El material contenido en esta página es para exclusivo uso privado, por lo que se prohibe su reproducción o retransmisión, así como su uso para fines comerciales.