Don't Go Away, Oasis (tablatura)

Autor: AlbertoGNR | 31565 visualizaciones

Intro:       Am            G                    Fmaj7       
E-----------------------------------------------------
B-----------------------------------------------------
G------------5---7----------(9)-----7---5---7---5-----
D----5---7-----------------------------------------7--
A-----------------------------------------------------
E-----------------------------------------------------

                 Dm     G (x2)
---------------------------------|-----------------------|
---------------------------------|-----------------------|
---------------------------------|---5-------------------|
------------------------------7--|--------7--------------|
-----------X--X--5--(7)----------|-----------------------|
-------------------------5-------|-----------------------|
                                 |--play this part only--|
                                 |----on the 2nd time----|
Calificar esta versión:
Aviso: Este fichero es trabajo propio de su transcriptor y representa su interpretación personal de la canción. El material contenido en esta página es para exclusivo uso privado, por lo que se prohibe su reproducción o retransmisión, así como su uso para fines comerciales.