Volviendo En Si, Noxrec0mendable (acordes)

Autor: anthony valencia | 30202 visualizaciones

E7*
  1-----x-----*
  2-----x-----*
  3-----2-----*
  4-----0-----*
  5-----2-----*
  6-----x-----*

Do*
  1-----3-----*
  2-----1-----*
  3-----0-----*
  4-----2-----*
  5-----3-----*
  6-----x-----*

Do**
  1-----5-----*
  2-----3-----*
  3-----0-----*
  4-----4-----*
  5-----5-----*
  6-----x-----*

Do7*
  1-----x-----*
  2-----1-----*
  3-----0-----*
  4-----2-----*
  5-----3-----*
  6-----3-----*

Do7**
  1-----x-----*
  2-----3-----*
  3-----0-----*
  4-----4-----*
  5-----5-----*
  6-----5-----*

Gx (zta nota no parece peo zi ez azi pa tocar zta zong)
  1-----3-----*
  2-----3-----*
  3-----0-----*
  4-----0-----*
  5-----0-----*
  6-----0-----*

Gx*
  1-----3-----*
  2-----3-----*
  3-----0-----*
  4-----2-----*
  5-----2-----*
  6-----0-----*

Am7*
  1-----0-----*
  2-----1-----*
  3-----0-----*
  4-----2-----*
  5-----0-----*
  6-----x-----*



E       E7*           Am7*
  Y me dices que te vas , que lo nueztro ze acabo
E         E7*                 Am                          Do* Do**
   Que es en vano estar luchando para qe no muera nuestro amor

    E            E7*  Am
     nuestro amor..

E         E7*       Am7*
  Y me dices que no soy el que yo creía ser
 E         E7*          Am7*                                Do* Do**
   El hombre que tu esperaaabas y que hoy me toco perder..

 E         E7*    Am7*
   Perder     na na na na


Coro:
   Do7*            Do7**       G          Gx      Gx*
       Y me despierto y solo griiiiitoooo de dolooooor
   Do7*          Do7*                 G      Gx     Gx*
      Y trato de uiiiir desnudo en meeeeedio de mi voz
         Do7*        Do7**              G       Gx    Gx
   Do7*            Do7**       G          Gx      Gx**
    Quizaz eztoy perdido quizaz zolo eztoooy confundidoooo...
         Do7*           Do7**    (E E7* Am)x2
    Quizaz eztoy volviendo en sí...


VERSO
E      E7*          Am7*
  Y yo no se que decir palabras mudas ante ti
E      E7*        Am7*
 Me quedo petrificaaado yo ya no se que sentir ..

Coro:
     Do7*            Do7**       G         Gx      Gx*
        Y me despierto y solo griiiiitoooo de dolooooor
   Do7*          Do7*                 G      Gx     Gx*
      Y trato de uiiiir desnudo en meeeeedio de mi voz
         Do7*        Do7**              G       Gx    Gx*
    Quizaz eztoy perdido quizaz zolo eztoooy confundidoooo...
         Do7*           Do7**    (E E7* Am)x2
    Quizaz eztoy volviendo en sí...

Coro:
   Do7*            Do7**       G          Gx      Gx*
       Y me despierto y solo griiiiitoooo de dolooooor
   Do7*             Do7*          G     Gx     Gx*
      Entre sabanas enredadas que no me hacen soñaaar
         Do7*        Do7**              G       Gx    Gx*
    Quizaz eztoy perdido quizaz zolo eztoooy confundidoooo...
         Do7*           Do7**    (E E7* Am)x2
    Quizaz eztoy volviendo en sí...

Comentarios del colaborador: ESTA CIONK SI ME VACILA DE PTM Y CASO DE MUCHO A LA VEZ BUENO GRACIAS X VER Y DEJEN COMENTARIOS P MIERDA SALUDOS PARA MI BROTHER MARVIN Q TA SIEMPRE EN GANYA Y SOBRE TOO NUNK LE FALTA UN CONSEJO PARA MI .... TMR

Calificar esta versión:
Aviso: Este fichero es trabajo propio de su transcriptor y representa su interpretación personal de la canción. El material contenido en esta página es para exclusivo uso privado, por lo que se prohibe su reproducción o retransmisión, así como su uso para fines comerciales.