Seas Mia, Novel (acordes)

Autor: tenya | 39393 visualizaciones

abmdd9g
weno pues esta es la primera canción que subo
a la cuerda xD espero y sea de su agrado
suerte ^^
[DUDAS O CORECCIONES A  tenya_ysiv@hotmail.com ]


Intro
          D9                 A               G         A 

e----------0------------------0----------------------------
B------3-------3----------2-------2-----------3-3-------2-3
G----2---2---2---2------2---2---2---2--------0--------2----
D--0-------------------------------------------------------
A---------------------0-----------------------------0------
E-----------------------------------------3----------------



D         A 
 No se ni como hacerle
G           A 
 para convencerte,
D               A 
 que tu eres la única
G                A 
 que vuela en mi mente,
G       A            D
 no soy bueno para hablar,
G     A         D
 y todo me sale mal,

D       A           G            A 
 y si hablara del pozito en tu mejilla,
D         A            G            A 
 podría hacerle una canción a tu sonrisa,
D        A            Bm             G
 y sin pasar por alto   tu mirada de diva,
D          A                 G   A 
 sin mas palabras quiero que tu
 [INTRO] D9   A      G     A 
  seas mía,    seas mía.


D        A                 G
 Y si te digo lo que todos dicen,
         A           D
 tal vez pueda funcionar
      A        G     A 
 pero déjame decirte
G           A            D
 que no soy bueno para hablar,
G    A          D
 y todo me sale mal,

D       A           G            A 
 y si hablara del pozito en tu mejilla,
D         A            G            A 
 podría hacerle una canción a tu sonrisa,
D        A            Bm             G
 y sin pasar por alto   tu mirada de diva,
D          A                 G   A 
 sin mas palabras quiero que tu

        D  A     G   A       D  A     G   A 
 seas mía,  seas mía. seas mía,  seas mía.

 seas mía.
          D9                 A               G         A 

e----------0------------------0----------------------------
B------3-------3----------2-------2-----------3-3-------2-3
G----2---2---2---2------2---2---2---2--------0--------2----
D--0-------------------------------------------------------
A---------------------0-----------------------------0------
E-----------------------------------------3----------------


    D9

e---0----
B---3----
G---2----
D---0----
A--------
E--------
Calificar esta versión:
Aviso: Este fichero es trabajo propio de su transcriptor y representa su interpretación personal de la canción. El material contenido en esta página es para exclusivo uso privado, por lo que se prohibe su reproducción o retransmisión, así como su uso para fines comerciales.