Ranchera, Nos Llamamos (tablatura)

Autor: alexisrock | 38235 visualizaciones

D----8----8-----8----8--
A-10----10---10----10---
E-----------------------

D---------0----
A---7----(7)---
E-9----9-(9)---



  B    A    G      A#m
e-7-7--5-5--3-3-3--1-1--
B-7-7--5-5--3-3-3--2-2--
G-8-8--6-6--4-4-4--3-3--
D-9-9--7-7--5-5-5--1-1--
A-9-9--7-7--5-5-5--1-1--
E-7-7--5-5--3-3-3--1-1--



MIN:3:03

  G            E            Am           F
e-3-3-3-3-3-3--0-0-0-0-0-0--0-0-0-0-0-0--1-1-1-1-1-1
B-3-3-3-3-3-3--0-0-0-0-0-0--1-1-1-1-1-1--1-1-1-1-1-1
G-0-0-0-0-0-0--1-1-1-1-1-1--2-2-2-2-2-2--2-2-2-2-2-2
D-0-0-0-0-0-0--2-2-2-2-2-2--2-2-2-2-2-2--3-3-3-3-3-3
A-2-2-2-2-2-2--2-2-2-2-2-2--0-0-0-0-0-0--3-3-3-3-3-3

  E            C            F            E
e-0-0-0-0-0-0--0-0-0-0-0-0--1-1-1-1-1-1--0-
B-0-0-0-0-0-0--1-1-1-1-1-1--1-1-1-1-1-1--0-
G-1-1-1-1-1-1--0-0-0-0-0-0--2-2-2-2-2-2--1-
D-2-2-2-2-2-2--2-2-2-2-2-2--3-3-3-3-3-3--2-
A-2-2-2-2-2-2--3-3-3-3-3-3--3-3-3-3-3-3--2-
E-0-0-0-0-0-0--0-0-0-0-0-0--1-1-1-1-1-1--1-

Comentarios del colaborador: MMMMm espero q les guste, si les perese q puede mejorar aganmelo saber gracias

Calificar esta versión:
Aviso: Este fichero es trabajo propio de su transcriptor y representa su interpretación personal de la canción. El material contenido en esta página es para exclusivo uso privado, por lo que se prohibe su reproducción o retransmisión, así como su uso para fines comerciales.