Torpedo, Non Servium (acordes)

Autor: 17punk | 32069 visualizaciones

lalasosre
intro 
  1e-----------------------------------------------------------
  2B-----------------------------------------------------------
  3G-----------------------------------------------------------
  4D--------------------------------------------------77-5-----
  5A-0-5-7-8-0-5-7-8-7-5---5-7-8-5-7-8-7-5-----555-777----8-7-5
  6E--------------------8-6-----6---------6-555----------------

  despues se toka mas rapido la segunda vez 
  verso:
  Re
  una cancion hecha a tu medida 
  La#
  esto es para ti bala perdida
  La                       Re
  joven oculto en la oscuridad
  Re
  mekanismos puros y komplejos 
  La#
  la vida normal te keda lejos
  La                       Re
  fiel amante de la oscuridad
  coro:
  Re
  de la oscuridad [de la oscuridad]
  La#
  de la oscuridad [de la oscuridad]
  La                           
  de la oscuridad [de la oscuridad]
  Re
  de la oscuridad        torpedo

  aki se repite el intro ya 
  verso:
  Re
  muchos años experimentando
  La#
  sensaciones ke nunka entendieron
  La                        Re
  joven torpedo de la oscuridad
  Re
  y si hay algo ke te has aprendido
  La#
  es ke no van a poder kontigo
  La                      Re
  joven okulto en la oscuridad 

  coro:
  solo:

  1e-------------------------------------------
  2B-------------------------------------------
  3G-------------------------------------------
  4D-------------------------------------------
  5A-55555555-7-88888888-8-7-5-4-44444444-4-7-5
  6E-------------------------------------------

  1e-------------------------------------------
  2B-------------------------------------------
  3G-55555555-7-88888888-8-7-5-4-44444444-4-7-5
  4D-------------------------------------------
  5A-------------------------------------------
  6E-------------------------------------------

  1e------------------------------17------------------------
  2B---------------------13-15-15/--15/---------------------
  3G-7--7-9-10-9-10-12-14--------------10-9-10-9-5-4-5555555
  4D--------------------------------------------------------
  5A--------------------------------------------------------
  6E--------------------------------------------------------


  yapo kualkier duda me avisan si kieren tablaturas de otros grupos me avisan ya les dejo mi msn ya xao kuidense

  kail_6_2@hotmail.com  xao

  *punk*not*de[A]d*  oi!
Calificar esta versión:
Aviso: Este fichero es trabajo propio de su transcriptor y representa su interpretación personal de la canción. El material contenido en esta página es para exclusivo uso privado, por lo que se prohibe su reproducción o retransmisión, así como su uso para fines comerciales.