Seguimos Siendo, Non Servium (acordes)

Autor: 17punk | 20377 visualizaciones

acdfg
non servium

  seguimos siendo


 intro
 e|------------------------------------|
 B|-3-3-0-1-----3-3-1-0-3-3-0-1-0------|
 G|--------2-2-2---------------2-0-2---|
 D|------------------------------------|
 A|------------------------------------|
 E|------------------------------------|

 e|------------------------------------------------|
 B|-1-3-5-5-6-3-5-3-3-0-1-----3-3-1-0-3-3-0-1-0----|
 G|----------------------2-2-2---------------2-0-2-|
 D|------------------------------------------------|
 A|------------------------------------------------|
 E|------------------------------------------------|
       A                   G          F          G     A 
 Somos skinheads, y en la barra nadie resiste, a nuestro lao
            C        D    C                 A                  G
Porke nos gusta el buen beber la buena cerveza las ostias en el bar
        F          G     A 
 bebe lo que puedas sin pagar
 
  y despues se lleva la kancion asi y se repiote el intro

kualkier otra kancion me dicen ya kuidence kail_6_2@hotmail.com
Calificar esta versión:
Aviso: Este fichero es trabajo propio de su transcriptor y representa su interpretación personal de la canción. El material contenido en esta página es para exclusivo uso privado, por lo que se prohibe su reproducción o retransmisión, así como su uso para fines comerciales.