Punks Y Skins, Non Servium (tablatura)

Autor: osxzcar | 27530 visualizaciones

****************************************************************
        ,     ,     ,     ,       ,     ,     ,     ,
     G|-------------------------|-------------------------|
     D|-------------------------|-------------------------|
Bajo A|-5--5555--5555--5558-7-8-|-5--5555--555------------| (x4)
     E|-------------------------|-------------6--66688665-|


****************************************************************

     G|-------------------------|-------------------------|
     D|-------------------------|-------------------------|
Bajo A|-5--5555--5555--5558-7-8-|-5--5555--555------------| (x2)
     E|-------------------------|-------------6--66688665-|

     e|-------------------------|-------------------------|
     B|-------------------------|-------------------------|
     G|-7-----7-----7-----109-10|-7-----7-----------------|
Gtr1 D|-7-----7-----7-----109-10|-7-----7-----8-----108-7-|
     A|-5-----5-----5-----8-7-8-|-5-----5-----8-----108-7-| (x2)
     E|-------------------------|-------------6-----8-6-5-|

A los que piensan que somos lacra so-
cial un excremento de la socie-
dad demostraremos su equivoca-
cion pagaran cara su acusa-
cion
     G|-------------------------|-------------------------|
     D|-------------------------|-------------------------|
Bajo A|-5--5555--5555--5558-7-8-|-5--5555--555------------| (x2)
     E|-------------------------|-------------6--66688665-|

     e|-------------------------|-------------------------|
     B|-------------------------|-------------------------|
     G|-7-----7-----7-----109-10|-7-----7-----------------|
Gtr1 D|-7-----7-----7-----109-10|-7-----7-----8-----108-7-|
     A|-5-----5-----5-----8-7-8-|-5-----5-----8-----108-7-| (x2)
     E|-------------------------|-------------6-----8-6-5-|


     G|-------------------------|-------------------------|
     D|-------------------------|-------------------------|
Bajo A|-5--5555--5555--5558-7-8-|-5--5555--555------------| (x2)
     E|-------------------------|-------------6--66688665-|

     e|----------------------------|----------------------------|
     B|----------------------------|----------------------------|
     G|-7--7-7-7-7--7-7-7-7-10-9-10|-7--7-7-7-7-----------------|
Gtr1 D|-7--7-7-7-7--7-7-7-7-10-9-10|-7--7-7-7-7--8-8-8-8--108-7-|
     A|-5--5-5-5-5--5-5-5-5-8--7-8-|-5--5-5-5-5--8-8-8-8--108-7-| (x2)
     E|----------------------------|-------------6-6-6-6--8-6-5-|

*************************************************************************

     G|-------------------------|-------------------------|
     D|-------------------------|-------------------------|
Bajo A|-5--5555--5555--5558-7-8-|-5--5555--555------------| (x2)
     E|-------------------------|-------------6--66688665-|


     e|-------------------------|-------------------------|
     B|-------------------------|-------------------------|
     G|-7-----7-----7-----109-10|-7-----7-----------------|
Gtr1 D|-7-----7-----7-----109-10|-7-----7-----8-----108-7-|
     A|-5-----5-----5-----8-7-8-|-5-----5-----8-----108-7-| (x2)
     E|-------------------------|-------------6-----8-6-5-|

Para vosotros empieza la cuenta a-
Tras vuestros insultos os vais a tra
gar  no aguantaremos ni un minuto
mas empieza la guerra   antiso-
cial

*************************************************************************
lololo  Lo lololo    Lo lololo   Lo lololo

Lo lololo    Lo lololo    Lo lololo   Lo lololo

     G|-------------------------|-------------------------|
     D|-------------------------|-------------------------|
Bajo A|-5--5555--5555--5558-7-8-|-5--5555--555------------| (x2)
     E|-------------------------|-------------6--66688665-|

     e|----------------------------|----------------------------|
     B|----------------------------|----------------------------|
     G|-7--7-7-7-7--7-7-7-7-10-9-10|-7--7-7-7-7-----------------|
Gtr1 D|-7--7-7-7-7--7-7-7-7-10-9-10|-7--7-7-7-7--8-8-8-8--108-7-|
     A|-5--5-5-5-5--5-5-5-5-8--7-8-|-5--5-5-5-5--8-8-8-8--108-7-| (x2)
     E|----------------------------|-------------6-6-6-6--8-6-5-|
*************************************************************************
 e|---|---------------------------------|-------------------------------|
 B|---|---------------------------------|-----------------------------1-|
 G|---|---------------------------------|---------------0-2-222---222---|
 D|---|-0-000-2-3-2-3-0-----------------|-0-000-2-3-2-3---------3-------|
 A|-0-|-----------------3-333-0-3-333-0-|-------------------------------|
 E|---|---------------------------------|-------------------------------|

 e|---------------------------------|-------------------------------|---|
 B|-3-333-3-------------------------|-------------------------------|---|
 G|---------2-222-2-----------------|-------------------------------|---|
 D|-----------------3-333-2-0-0-----|---------3~----------222-0-0---|-0-|
 A|-------------------------------0-|-1-1-1-1---------------------3-|---|
 E|---------------------------------|-------------------------------|---|
*************************************************************************



        ,     ,     ,     ,       ,     ,     ,     ,
     G|-------------------------|-------------------------|
     D|?------------------------|-------------------------|
Bajo A|?5---555---555---555--3--|-5---555---555---555--7--|
     E|-------------------------|-------------------------|
        ,     ,     ,     ,       ,     ,     ,     ,
     e|-------------------------|-------------------------|
     B|-------------------------|-------------------------|
     G|?7-----7-----7-----7--5--|-7-----7-----7-----7--9--|
Gtr1 D|?7-----7-----7-----7--5--|-7-----7-----7-----7--7--|
     A|-5-----5-----5-----5--3--|-5-----5-----5-----5--7--|
     E|-------------------------|-------------------------|



        ,     ,     ,     ,       ,     ,     ,     ,
     G|-------------------------|-------------------------|
     D|-------------------------|------------------------?|
Bajo A|-8---888---888---888--7--|------------------------?|
     E|-------------------------|-5---555-5---8---888-8---|

      ,     ,     ,     ,       ,     ,     ,     ,
     e|-------------------------|-------------------------|
     B|-------------------------|-------------------------|
     G|-10----10----10----10-9--|------------------------?|
Gtr1 D|-10----10----10----10-9--|-7-----7-----10----10---?|Todo este
     A|-8-----8-----8-----8--7--|-7-----7-----10----10----|trozo se
     E|-------------------------|-5-----5-----8-----8-----|repite 2 veces
La segunda guitarra lo toca en palm mute!
*************************************************************************
Aquí empieza rápido!
     G|-------------------------|-------------------------|
     D|?------------------------|-------------------------|
Bajo A|?5---555---555---555--3--|-5---555---555---555--7--|
     E|-------------------------|-------------------------|

     e|---------------------|-----------------------|
     B|---------------------|-----------------------|
     G|?7--7-7-7-7-7-7-7-5--|-7--7-7-7-7-7-7-7-7-9--|
Gtr1 D|?7--7-7-7-7-7-7-7-5--|-7--7-7-7-7-7-7-7-7-9--|
     A|-5--5-5-5-5-5-5-5-3--|-5--5-5-5-5-5-5-5-5-7--|
     E|---------------------|-----------------------|

     G|-------------------------|-------------------------|
     D|-------------------------|------------------------?|
Bajo A|-8---888---888---888--7--|------------------------?|
     E|-------------------------|-5---555-5---8---888-8---|

     e|------------------------------|-------------------------|
     B|------------------------------|-------------------------|
     G|-10-10-10-10-10-10-10-10--9---|-------------------------|
Gtr1 D|-10-10-10-10-10-10-10-10--9---|-7-7-7-7-10-10-10-10-----|
     A|-8--8--8--8--8--8--8--8---7---|-7-7-7-7-10-10-10-10-----|
     E|------------------------------|-5-5-5-5-8--8--8--8------|


     G|-------------------------|-------------------------|
     D|?------------------------|-------------------------|
Bajo A|?5---555---555---555--3--|-5---555---555---555--7--|
     E|-------------------------|-------------------------|

     e|---------------------|-----------------------|
     B|---------------------|-----------------------|
     G|?7--7-7-7-7-7-7-7-5--|-7--7-7-7-7-7-7-7-7-9--|
Gtr1 D|?7--7-7-7-7-7-7-7-5--|-7--7-7-7-7-7-7-7-7-9--|
     A|-5--5-5-5-5-5-5-5-3--|-5--5-5-5-5-5-5-5-5-7--|
     E|---------------------|-----------------------|

     G|-------------------------|-------------------------|
     D|-------------------------|------------------------?|
Bajo A|-8---888---888---888--7--|------------------------?|
     E|-------------------------|-5---555-5---8---888-8---|

     e|------------------------------|-------------------------|
     B|------------------------------|-------------------------|
     G|-10-10-10-10-10-10-10-10--9---|-------------------------|
Gtr1 D|-10-10-10-10-10-10-10-10--9---|-7-7-7-7-10-10-10-10-----|
     A|-8--8--8--8--8--8--8--8---7---|-7-7-7-7-10-10-10-10-----|
     E|------------------------------|-5-5-5-5-8--8--8--8------|

Este es un cacho que va un poco mas tranquilo
Sigue firme sigue erguido
Y no des un paso atrás
Tendras que aguantar
A idiotas que te intentaran cambiar
Con discursos gilipollas palabritas de papa
Con mirada de empresario siempre te dira
Sigue ese camino que te an asignado a ti
Si te sales del rebaño no podras sobrevivir
Llegara algún dia en que te arrepentiras
De esa música violenta esa moda radical

cerdos ignorantes no nos vais a hacer cambiar
seguiremos en las mismas unidos hasta el final
punk y skin en las calles ya sabeis lo que te espera
dos culturas agresivas golpeando tu sistema

     G|-------------------------|-------------------------|
     D|?------------------------|-------------------------|
Bajo A|?5---555---555---555--3--|-5---555---555---555--7--|
     E|-------------------------|-------------------------|

     e|---------------|---------------|
     B|---------------|---------------|
     G|?7--7-7-7-7-5--|-7--7-7-7-7-9--|
Gtr1 D|?7--7-7-7-7-5--|-7--7-7-7-7-9--|
     A|-5--5-5-5-5-3--|-5--5-5-5-5-7--|
     E|---------------|---------------|




     G|-------------------------|-------------------------|
     D|-------------------------|------------------------?|
Bajo A|-8---888---888---888--7--|------------------------?|
     E|-------------------------|-5---555-5---8---888-8---|



     e|-----------------|-------------------------|
     B|-----------------|-------------------------|
     G|-10-10-10-10-9---|-------------------------|
Gtr1 D|-10-10-10-10-9---|-7-7-7-7-10-10-10-10-----|
     A|-8--8--8--8--7---|-7-7-7-7-10-10-10-10-----|
     E|-----------------|-5-5-5-5-8--8--8--8------|

Y de nuevo rápido!

     G|-------------------------|-------------------------|
     D|?------------------------|-------------------------|
Bajo A|?5---555---555---555--3--|-5---555---555---555--7--|
     E|-------------------------|-------------------------|

     e|---------------------|-----------------------|
     B|---------------------|-----------------------|
     G|?7--7-7-7-7-7-7-7-5--|-7--7-7-7-7-7-7-7-7-9--|
Gtr1 D|?7--7-7-7-7-7-7-7-5--|-7--7-7-7-7-7-7-7-7-9--|
     A|-5--5-5-5-5-5-5-5-3--|-5--5-5-5-5-5-5-5-5-7--|
     E|---------------------|-----------------------|

     G|-------------------------|-------------------------|
     D|-------------------------|------------------------?|
Bajo A|-8---888---888---888--7--|------------------------?|
     E|-------------------------|-5---555-5---8---888-8---|

     e|------------------------------|-------------------------|
     B|------------------------------|-------------------------|
     G|-10-10-10-10-10-10-10-10--9---|-------------------------|
Gtr1 D|-10-10-10-10-10-10-10-10--9---|-7-7-7-7-10-10-10-10-----|
     A|-8--8--8--8--8--8--8--8---7---|-7-7-7-7-10-10-10-10-----|
     E|------------------------------|-5-5-5-5-8--8--8--8------|

     G|-------------------------|-------------------------|
     D|-------------------------|-------------5-5-5-5-----|
Bajo A|-55---555---555---555--7-|-88---888---8--------8-7-|
     E|-------------------------|-------------------------|













Escucha bastardo si nos kieres destruir,
 tendras ke tener cuidado, si vivo kieres salir
 Seguiremos en la lucha, aunke no nos keden balas,
 con la cabeza rapada, con la cresta levantada

     G|-------------------------|-------------------------|
     D|-------------------------|-------------5-5-5-5-----|
Bajo A|-55---555---555---555--7-|-88---888---8--------8-7-|
     E|-------------------------|-------------------------|

     e|-------------------------|-------------------------|
     B|-------------------------|-------------------------|
     G|-7-----7-----7-----7--9--|-10----10----10----10-9--|
Gtr1 D|-7-----7-----7-----7--9--|-10----10----10----10-7--|
     A|-5-----5-----5-----5--7--|-8-----8-----8-----8--7--|
     E|-------------------------|-------------------------|


     G|-------------------------|-------------------------|
     D|-------------------------|-------------------------|
Bajo A|-------------77---788-10-|-------------------88-7--|
     E|-88---888---8------------|-55---555---588---8------|

     e|-------------------------|-------------------------|
     B|-------------------------|-------------------------|
     G|-------------------------|-------------------------|
Gtr1 D|-10----10----10----10-8--|-7-----7-----10----10----|
     A|-10----10----10----10-8--|-7-----7-----10----10----|
     E|-8-----8-----8-----8--6--|-5-----5-----8-----8-----|

Comentarios del colaborador: la cuerda esto es tablatura y acordes lo de el bajo tambien puede realizarse con guitarra

Calificar esta versión:
Aviso: Este fichero es trabajo propio de su transcriptor y representa su interpretación personal de la canción. El material contenido en esta página es para exclusivo uso privado, por lo que se prohibe su reproducción o retransmisión, así como su uso para fines comerciales.