Punk Y Skin, Non Servium (acordes)

Autor: 17punk | 36559 visualizaciones

doefalasosre
punk y skin
  intro 
  1e---------------------------------------------
  2B---------------------------------------------
  3G---------------------------------------------
  4D---------------------------------------------   X2
  5A-555555555-8-7-8-555555555-------5-----------
  6E--------------------------666-8-6------------
    Re    Fa  E         La# Do
  1e----+---+--+-------+---+--+-----------------------
  2B----+------+-------+---+--+----------------------
  3G-7--+-10+-9+-10-7-7+---+--+------7----------------  X2
  4D-7x3+-10+-9+-10-7-7+-8-+10+-8-10-7----------------
  5A-5--+-8-+-7+-8--5-5+-8-+10+-8-10-5----------------
  6E----+---+--+-------+-6-+8-+-6-8-------------------

   toda la kancion se llava asi pero despues se pone rapida

  veso:se toka komo sale arriba pero lento
  
  a los ke piensan ke somos 
  lakra social 
  un exkremento der la sociedad
  demostraremos su ekivokacion 
  pagarán kara su akusacion
  para vosotros empiezan 
  la kuenta atras
  vuestros insultos los vais a tragar
  no aguantaremos ni un minuto mas 
  empieza la guerra antisocial
  
  1e----------------------------------------------------------
  2B-----------------------------------------------1-3333-----
  3G---------------------------------------0-2222-2------2222-
  4D--0000-2-3-2-3-0-----------0000-2-3-2-3------3------------
  5A-0--------------3333-0-33-0-------------------------------
  6E----------------------------------------------------------

  1e-----------------------------------------------------
  2B-----------------------------------------------------
  3G-----------------------------------------------------
  4D-3333-2-0------3-2222-0-0-0-0-0-0-0-0-0-2-3333-2-----
  5A---------0-1111--------3---------------3--------3----
  6E-----------------------------------------------------

  aka se pone mas buena se toka mas rapido 

  verso:2
  Re
  sigue firme sigue erguido y no des ni un paso atras
  Fa
  tendras ke aguantar a idiotas ke te intentaran kambiar
  La#
  kon sermones gilipollas palabritas de papá
  Do
  su mirada de empresario siempre te dira 
  Re
  sigue tu kamino ke te han asignado a ti
  Fa
  si te sales del rebaño no podras sobrevivir
  La#
  llegará algun dia en el ke te arrepentirás
  Do
  de esa musika violenta de esa moda radikal
  Re
  cerdos ignorantes no nos vais hacer kambiar 
  Fa
  seguiremos en la lucha unidos hasta el final
  La#
  punk y skin en las kalles ya sabeis lo ke te espera
  Do
  dos kulturas agresivas golpeando tu sistema
  Re
  eskucha bastardo si nos kieres destruir 
  Fa
  tendras ke tener kuidado si vivo kieres salir 
  La#
  seguiremos en la lucha aunke no nos keden balas
  Do
  kon la kabeza rapada o kon la kresta levantada  

  espero ke les guste po le sdejo mi msn ya kualkier duda xao kuidense

  kail_6_2@hotmail.com xao
Calificar esta versión:
Aviso: Este fichero es trabajo propio de su transcriptor y representa su interpretación personal de la canción. El material contenido en esta página es para exclusivo uso privado, por lo que se prohibe su reproducción o retransmisión, así como su uso para fines comerciales.