The Marxist Brothers, Nofx (tablatura)

Autor: jasonitachi | 43669 visualizaciones



-7-7-7-7--8--8--8--8-----------------|
-8-8-8-8--8--8--8--8-----------------|
-9-9-9-9--9--9--9--9      {repeat 11-| times i think, listen to hear it}
-9-9-9-9--10-10-10-10----------------|
-------------------------------------|
-------------------------------------|


-----------------------------------------|
-----------------------------------------|
-----4~------5~--2~--7~----------2~--7~--|    {slow part}
-5~--4~--2~--5~--2~--7~--5~--2~--2~--7~--|
-5~--2~--2~--3~--0~--5~--5~--2~--0~--5~--|
-3~------0~--------------3~--0~----------|


-9---9---9---9---10--10--10--10-|
-10--10--10--10--10--10--10--10-|
-11--11--11--11--11--11--11--11-|    {next verse}
-11--11--11--11--12--12--12--12-|
--------------------------------|
--------------------------------|


-----------------------------------------|
-----------------------------------------|
-----4~------5~--2~--7~----------2~--7~--|    {slow part again}
-5~--4~--2~--5~--2~--7~--5~--2~--2~--7~--|
-5~--2~--2~--3~--0~--5~--5~--2~--0~--5~--|
-3~------0~--------------3~--0~----------|


-----------------------------------------------------------|
-----------------------------------------------------------|
-------------------7777777777777777------------------------|
-4444444444444444--7777777777777777     {part before solo--|
-4444444444444444--5555555555555555------------------------|
-2222222222222222------------------------------------------|





Calificar esta versión:
Aviso: Este fichero es trabajo propio de su transcriptor y representa su interpretación personal de la canción. El material contenido en esta página es para exclusivo uso privado, por lo que se prohibe su reproducción o retransmisión, así como su uso para fines comerciales.