Anorexorcist, Nirvana (tablatura)

Autor: franco_tatengue88 | 36414 visualizaciones



d#|-----------------------------------------------------|
A#|-----------------------------------------------------|
G#|-----------------------------------------------------|
D#|---------------------------------------0~---0--0-0--0|
A#|------0------0-----3--/5---5--/7---7-0~---0---0-0--0-|
D#|0~~-0---0--0---0-3---3/5-5---5/7-7-------------------|

Intro.
d#|-----------------------------------------------------|
A#|-----------------------------------------------------|
G#|-4--4-4----------------------------------------------|
D#|-4--4-4---2-3-0~~~-----------------------------------|
A#|-2--2-2---2-3-0~~~-----------------------------------|
D#|----------2-3-0~~~-----------------------------------|


Verso (muy rapido) 8X 
d#|-----------------------------------------------------|
A#|-----------------------------------------------------|
G#|-----------------------------------------------------|
D#|-3--2--0--3--2--0--3--2--0--3--2--0--3-2-0--0--------|
A#|-3--2--0--3--2--0--3--2--0--3--2--0--3-2-0--0--------|
D#|-3--2--0--3--2--0--3--2--0--3--2--0--3-2-0--0--------|
(Continua) 

Fin 1x
d#|-----------------------------------------------------|
A#|-----------------------------------------------------|
G#|-4--4-4-4-4-4-4-4-4-4-4b-----------------------------|
D#|-4--4-4-4--------------------------------------------|
A#|-2--2-2-2--------------------------------------------|
D#|-----------------------------------------------------|

REF
d#|-----------------------------------------------------|
A#|-----------------------------------------------------|
G#|-----4--4-4-4-4-----4--4-x-2-------------------------|
D#|-023-4--4-4-4-4-023-4--4-x-2---320-------------------|
A#|-023-2--2-2-2-2-023-2--2-x-0---320-------------------|
D#|-023------------023------------320-------------------|






Calificar esta versión:
Aviso: Este fichero es trabajo propio de su transcriptor y representa su interpretación personal de la canción. El material contenido en esta página es para exclusivo uso privado, por lo que se prohibe su reproducción o retransmisión, así como su uso para fines comerciales.