Ain't It A Shame, Nirvana (tablatura)

Autor: GuitarKurt | 19550 visualizaciones

-----------------------------|l 
-----------------------------|l 
-1---------------------------|l 
-2---------------------------|l 
-2---------------------------|l
-0---------------------------|l
(1) Ain't it a shame to go fishing on a Sunday ain't it a shame.
(2) Ain't it a shame to take a drink on a sunday ain't it a shame.
(3) Ain't it a shame to beat your wife on a sunday ain't it a shame.
----------------------------1-| 
----------------------------1-|
-4--------------------------1-|
-2--------------------------1-|
-2--------------------------1-|
----------------------------1-|
(1) Ain't it a shame to go fishing on a Sunday ain't it a shame.
(2) Ain't it a shame to take a drink on a sunday ain't it a shame.
(3) Ain't it a shame to beat your wife on a sunday ain't it a shame.
----------------------------------------|l
----------------------------------------|l
-1--------------------------------------|l
-2--------------------------------------|l
-2--------------------------------------|l
-0--------------------------------------|l
(1)Ain't it a shame to go fishing on a sunday...
(2) Ain't it a shame to take a drink on a sunday...
(3)Ain't it a shame to beat your wife on a sunday...
--------------------------------|
-2------------------------------|
-2------------------------------|
-2------------------------------|
--------------------------------|
--------------------------------|
(1) When you got Monday tuesday wednesday...
(2) When you got monday tuesday wednesday...
(3) When you got Monday tuesday wednesday...
---------------------------------|
---------------------------------|
-1-------------------------------|
-2-------------------------------|
-2-------------------------------|
-0-------------------------------|
(1) Or thursday friday saturday ain't it a shame
(2) Or thursday friday saturday ain't it a shame
(3) Or thursday friday saturday ain't it a shame
Calificar esta versión:
Aviso: Este fichero es trabajo propio de su transcriptor y representa su interpretación personal de la canción. El material contenido en esta página es para exclusivo uso privado, por lo que se prohibe su reproducción o retransmisión, así como su uso para fines comerciales.