The Hand That Feeds, Nine Inch Nails (tablatura)

Autor: slAshmAIdEn | 26763 visualizaciones



1|-----------------
2|-----------------
3|-----------------
4|-7-7-5-7--10--5--
5|-7-7-5-7--10--5--
6|-7-7-5-7--10--5--


Chorus lead 

1|---------------------------------------
2|---------------------------------------
3|-555555555555555544442222222200000000--
4|---------------------------------------
5|---------------------------------------
6|---------------------------------------


1|---------------------------------------
2|---------------------------------------
3|-66666666666666666666666666666666------
4|---------------------------------------
5|---------------------------------------
6|---------------------------------------
then play the 1st part again


Chorus rhythm

1|------------------------------------------------------------------
2|------------------------------------------------------------------
3|------------------------------------------------------------------
4|-3333333333333333-12-12-12-12-12-12-12-12-12-12-12-12-12-12-125--
5|-3333333333333333-12-12-12-12-12-12-12-12-12-12-12-12-12-12-125--
6|-3333333333333333-12-12-12-12-12-12-12-12-12-12-12-12-12-12-125--
then play the main riff a few times

then play this
1|-----------------------------------
2|-----------------------------------
3|-----------------------------------
4|-33333333333333334444444455555555--
5|-33333333333333334444444455555555--
6|-33333333333333334444444455555555--


Modulated Synth solo

1|-------------------------------------|--------------------------------------
2|-------------------------------------|--------------------------------------
3|-------------------------------------|--------------------------------------
4|-------------------------10-10-12----|------------10----10-12---------------
5|-12-12-12-12-12-10-12-10----------10-|-12-12-12-12----12-------1210-1210--
6|-------------------------------------|--------------------------------------

Synth

1|-----------8-8-10---|-----------------------
2|-10-10-8-8--------8-|-10-10-----------------
3|--------------------|-----------------------
4|--------------------|-------10-10-12-12-----
5|--------------------|-------------------10--
6|--------------------|-----------------------





Calificar esta versión:
Aviso: Este fichero es trabajo propio de su transcriptor y representa su interpretación personal de la canción. El material contenido en esta página es para exclusivo uso privado, por lo que se prohibe su reproducción o retransmisión, así como su uso para fines comerciales.