Savin Me, Nickelback (tablatura)

Autor: axl584 | 29214 visualizaciones



savin' me
nickelback

e|----------------------------------------------|
b|----------------------------------------------|
g|----0------------0---0-------0----------------|
d|------3------------3-----------3--0-----1-3---|
a|--3-----------------------------------------3-|
e|----------0-3-3-----------5---------0-0-------|



e|----------------------------------------------|
b|----------------------------------------------|
g|----0------------0---0-------0---------0------|
d|------3------------3-----------3--0------3----|
a|--3----------------------------------------0--|
e|----------0-3-3-----------5---------55--------|

 





Calificar esta versión:
Aviso: Este fichero es trabajo propio de su transcriptor y representa su interpretación personal de la canción. El material contenido en esta página es para exclusivo uso privado, por lo que se prohibe su reproducción o retransmisión, así como su uso para fines comerciales.