Te Marchaste De Mí, Nestor En Bloke (acordes)

Autor: Anónimo | 15366 visualizaciones

aa7dmfgmsi


Dm
Estoy muy triste
            Gm
porque me dejaste solo aquí
      F
Sin tu querer
      A
sin tu querer

Te has marchado                |
sin darme ninguna explicación  |Repite los acordes anteriores
de porque te vas               |
si yo no te hice mal           |

Dm
y ahora que te fuiste
yo te extraño mi amor

Dm
recuerdo lo momentos
que vivimos tu y yo

Gm
pero eso no importa
porque tu ya no estas

F
quisiera estar contigo
                       A [A7 Si quieren]
para poderte amar

           Dm
Te marchaste de mi
me dejaste solo aquí

         Gm
recordando los momentos
que contigo comparti

      Dm
quisiera yo tenerte
a mi lado otra vez

 F
para hacerte mía
                            A
y entregarte mi querer


Despues repite las estrofas y los acordes son los mismos

La melodia de la intro :

E|-----------------9---10-10-10----12-13-12-10-12---17--15--13-|
B|-----10--12--------------------------------------------------|
G|-------------------------------------------------------------|
D|-------------------------------------------------------------|
A|-------------------------------------------------------------|
E|-------------------------------------------------------------|

|--15-13--12-----------------------------------------------|
|-----------------15-------11-11-10-11-10-8-10--/8---------|
|----------------------------------------------------------|X 2
|----------------------------------------------------------|
|----------------------------------------------------------|
|----------------------------------------------------------|





Calificar esta versión:
Aviso: Este fichero es trabajo propio de su transcriptor y representa su interpretación personal de la canción. El material contenido en esta página es para exclusivo uso privado, por lo que se prohibe su reproducción o retransmisión, así como su uso para fines comerciales.