Tu Vives Equivocada, Nectar (acordes)

Autor: sama jazz | 33522 visualizaciones

fasosmmi


 Aca una pequeña muestra de lo que vendria a ser 
                tu vives equivocada
                         NECTAR

INTRO;

  Mi          Fa#m    Mi         Fa#m Fa#m Fa#m
e|-------------5-------------------5----5----5-
b|---5-5---5---7---------5-5---5---7----7----7-
G|-4-----4---4-6-------4-----4---4-6----6----6-
D|---------------------------------------------
A|---------------------------------------------
E|---------------------------------------------

   Mi         Fa#m    Mi         Fa#m
e|-------------5-----------------5-4------------
b|---5-5---5---7-------5-5---5-------7----------    Y Nuevamente
G|-4-----4---4-6-----4-----4---4----------------      el grupo
D|----------------------------------------------  Nectar para ti!!!
A|----------------------------------------------
E|----------------------------------------------

   Mi         Fa#m    Mi         Fa#m
e|-------------5-----------------5-4------------
b|---5-5---5---7-------5-5---5-------7----------
G|-4-----4---4-6-----4-----4---4----------------
D|----------------------------------------------
A|----------------------------------------------
E|----------------------------------------------

    Fa#m            Fa#m           Fa#m
e|-5-4------------------------------------------
b|-----7-----------7----------------------------
G|-------6-----------6-4----------6-------------
D|-----------------------7----------7-6-4-------
A|----------------------------------------------
E|----------------------------------------------


 





Comentarios del colaborador: LaCuerda

Calificar esta versión:
Aviso: Este fichero es trabajo propio de su transcriptor y representa su interpretación personal de la canción. El material contenido en esta página es para exclusivo uso privado, por lo que se prohibe su reproducción o retransmisión, así como su uso para fines comerciales.