Otra Vez, Natalia Lafourcade (acordes)

Autor: Anónimo | 17758 visualizaciones

ambmemem-gfsos5fm7gm
Dedicada 'Otra Vez' a Natalia Lafourcade 

Riff 

6|-------------------------|-------------------------|
5|-------------------------|-------------------------|
4|--0-0h2h3h4-----0h2-0-0--|--0-0h2h3h4-----------0--|
3|------------2-2----------|------------2-2-0h2-0----|
2|-------------------------|-------------------------|
1|-------------------------|-------------------------|

6|-------------------------|-------------------------|
5|-------------------------|-------------------------|
4|--0-0h2h3h4-----0h2-0-0--|--0-0h2h3h4---------2-0--|
3|------------2-2----------|------------2-4-2h0------|
2|-------------------------|-------------------------|
1|-------------------------|-------------------------|
      Riff x 2 
Otra vez, voy a estar contigo
Otra vez, talvez sufra otro poquito
Que ridícula mi obsesión
De platicar y jugar
Que maniática mi obsesión de empezar 
Algo mas...

6|----3--||
5|--0----||
4|-------||
3|--2-0--||
2|-------||
1|-------||
 Am                         Em/G 
Otra vez,                  pintare mis ojos
Otra vez,                  usare perfume en mis hombros
Que ridícula mi obsesión  de  imaginar sufrir mas
Que maniática mi insistencia no probar algo mas

Gm                   F#5          Bm  Am
Tengo que recuperar,   fuerzas
Para conocerte mas,    mientras
Tengo que ir a comprar, velas
Gm                   F#5           Fm7       Em
Para tu noche ideal aquí junto a mi

6|----3--|
5|--0----|
4|-------|
3|--2-0--|
2|-------|
1|-------|
Am                           Em/G 
Otra vez,                 habrá que reiniciar
Una rutina                  para la reconquista
Mira nada mas cuanto tiempo  pasara sin pasar
Mira nada mas lo que haremos por estar
Sin estar  Y después te marcharas [y olvidaras mi nombre pero]

[coro] 
Gm                   F#5          Bm  Am
Tengo que recuperar,   
Para conocerte mas,    mientras
Tengo que ir a comprar, velas
Gm                   F#5         Fm7 Em
Para tu noche ideal aquí junto a mi

Gm                   F#5          Bm  Am
Tengo que recuperar,   fuerzas
Para conocerte mas,    mientras
Tengo que ir a comprar, velas
Gm                   F#5         Fm7 Em
Para tu noche ideal aquí junto a mi

Riff x 2

Nota
*El Riff lo comienza el bajo y en la segunda vez entra la 
guitarra y en la tercera cantas
Calificar esta versión:
Aviso: Este fichero es trabajo propio de su transcriptor y representa su interpretación personal de la canción. El material contenido en esta página es para exclusivo uso privado, por lo que se prohibe su reproducción o retransmisión, así como su uso para fines comerciales.