Ella Es Bonita, Natalia Lafourcade (tablatura)

Autor: Anónimo | 21557 visualizaciones

Para Clau, aqui esta chica como lo prometí para que
veas que no hice trampa. TE QUIERO

Afinación estandar


Intro

--8-----------------8---------------------------
----8-10---8----------8--10---8-----------------
---------9---7--------------9---7---------9-----    x2
----------------------------------9/10--7-------
------------------------------------------------
------------------------------------------------


Verso

C
Por que será?
                       Am
Si no lo tienes mas lo quieres

C
Por que será?
                       Am
Cuando lo tienes ya no quieres


Coro

-------------------
-------------------
---7-7-5-5-2-2-5---    x2
---7-7-5-5-2-2-5---
---5-5-3-3-0-0-3---
-------------------


---------------3---
---------------3---
---7-7-5-5-2-2-4---    x1
---7-7-5-5-2-2-5---
---5-5-3-3-0-0-5---
---------------3---


-----------3-3-3-3--
-----------3-3-3-3--
---7-7-7-7-4-4-4-4--    x2
---7-7-7-7-5-5-5-5--
---5-5-5-5-5-5-5-5--
-----------3-3-3-3--


Verso

C
Por que será?
                         Am
Si estoy tus ojos van de viaje

C
Por que será?
                          Am
No estoy me ven por todas partes


Coro

-------------------
-------------------
---7-7-5-5-2-2-5---
---7-7-5-5-2-2-5---
---5-5-3-3-0-0-3---
-------------------


---------------3---
---------------3---
---7-7-5-5-2-2-4---
---7-7-5-5-2-2-5---
---5-5-3-3-0-0-5---
---------------3---


-------------------
-------------------
---7-7-5-5-2-2-5---
---7-7-5-5-2-2-5---
---5-5-3-3-0-0-3---
-------------------


-----------3-3-3-3--
-----------3-3-3-3--
---7-7-7-7-4-4-4-4--    x2
---7-7-7-7-5-5-5-5--
---5-5-5-5-5-5-5-5--
-----------3-3-3-3--


---------------3---
---------------3---
---7-7-5-5-2-2-4---     x2
---7-7-5-5-2-2-5---
---5-5-3-3-0-0-5---
---------------3---



Outro

     Dm    C
Ella es bonita

     Dm    C
Ella es bonita

       Dm
Aunque tiene mal humor

       C
Aunque no me quiere a mi


Antes del ultimo coro se escucha una trompeta que toca esto

-----------------------------
-----------------------------
---9p7---7-------------9-9---
-------7-------9h10--7-------
-----------------------------
-----------------------------
Calificar esta versión:
Aviso: Este fichero es trabajo propio de su transcriptor y representa su interpretación personal de la canción. El material contenido en esta página es para exclusivo uso privado, por lo que se prohibe su reproducción o retransmisión, así como su uso para fines comerciales.