Busca Un Problema, Natalia Lafourcade (tablatura)

Autor: Anónimo | 19165 visualizaciones

Intro
mientras el bajo hace esto

B--------------------|
D--------------------|
A-------3--------3---|
E-3---3-------3------|

la guitarra hace esto

e--------------------|
G--------------------|
B--------------------|
D--------------------|
A--------------2*3*2-|
E-0-1-2-3------------|

e--------------------|
G--------------------|
B--------------------|
D--------------2*4*2-|
A--------------------|
E-0-1-2-3------------|


G       C           G          C
Busca, busca un proble-e-ema   ya
e---------------------------------------|
G---------------------------------------|
B---------------------------------------|
D---------------------------------------|
A-------------------------------2*3*2---|
E---------------------------------------|

G       C            G           C
busca, busca tu lo puedes encontrar
e---------------------------------------|
G---------------------------------------|
B---------------------------------------|
D---------------------------------------|
A-----------------(con la plumilla)-----|
E----------------------------------X///-|

G        C          G     C
corre, corre a la cama de mamá
e---------------------------------------|
G---------------------------------------|
B---------------------------------------|
D-------------------------------2*4*2---|
A---------------------------------------|
E---------------------------------------|

G      C           G          C
dile q esta noche no vas a llegar
e-----//9-------------------------------|
G---------------------------------------|
B---------------------------------------|
D---------------------------------------|
A---------------------------------------|
E---------------------------------------|

     G    C  Bb          G    C   Bb       
A LA casa,        A LA casa



G        C             G     C
busca, busca en tus zapatos ya
G     C            G          C
un cigarro tu lo puedes encontrar
G       C             G        C
busca, busca a la persona q hara
G       C           G            C
q tus sueños solo se hagan realidad



e---8----8--8--8-----10~~----11----8---10--6~~-|
G-10---10-10-10----11~~-----11---10---10--8~---|
B----------------------------------------------|
D----------------------------------------------|
A----------------------------------------------|
E----------------------------------------------|


G          C           G           C
MMM entra de puntitas nadie escuchara
G      C          G         C
tus zapatos a las 12 de la noche
G      C           G          C 
corre a la cama y ponte a pensar
G    C             G            C
q diras al dia siguiente a tu papa


G            C           Bb
y pueden correrte de tu casa
G        C         Bb
o castigarte la semana
G            C          Bb
pueden prohibirte las bebidas
G             C           Bb
pero tu eres dueño de tu vida


(Este es un juego con el bajo)

G5   F#5   F5   E5
papa pa pa pa hue ho
G5   F#5   F5   E5
papa pa pa pa hue ho
G5   F#5   F5   E5
papa pa pa pa hue ho
G5   F#5   F5   E5
papa pa pa pa hue ho


G          C           Bb
pueden correrte de tu casa
G        C         Bb
o castigarte la semana
G            C          Bb
pueden prohibirte las bebidas
G             C           Bb
pero tu eres dueño de tu vida

G          C           Bb
pueden correrte de tu casa
G        C         Bb
o castigarte la semana
G            C          Bb
pueden prohibirte las bebidas
G             C           Bb
tu haces lo q quieras con tu vida

G            C           Bb
pueden correrte de tu casa
G        C         Bb
o castigarte la semana
G            C          Bb
pueden prohibirte las bebidas
G             C           Bb
pero tu eres dueño de tu vida

G            C           Bb
 pueden correrte de tu casa
G        C         Bb
o castigarte la semana
G            C          Bb
pueden prohibirte las bebidas
G             C           Bb
pero tu eres dueño de tu vida


Se oye bien si usan los acordes con cejilla
o al G le aumentas el D de la segunda cuerda!!
echenle oido

y ya saben si tienen dudas, comentarios, anecdotas,
chistes o lo q sea a mi mail jcd_007@hotmail.com

si van a usar esta tab para algun lugar avisenme
no sean ****gandallas***** y si buscan un 
guitarrista ando en busca de banda =)
Calificar esta versión:
Aviso: Este fichero es trabajo propio de su transcriptor y representa su interpretación personal de la canción. El material contenido en esta página es para exclusivo uso privado, por lo que se prohibe su reproducción o retransmisión, así como su uso para fines comerciales.