Rock Lee Soundtrack, Naruto (tablatura)

Autor: HOMINIDO | 26929 visualizaciones



E ----------------------------------
B ----------------------------------
G ----------------------------------
D ----------------------------------
A ---------------2---3-----4-5------
E --7-<<<---0-0----0---0------------
    -SLIDE-
E ----------------------------------------
B ----------------------------------------
G ----------------------------------------
D ----------------------------------------
A ---------------2---3---4-5-----5-5-4-0--
E ----------0-0----0---0------------------


NO ES LA VERDADERA TABLATURA PERO SUENA BIEN ESPERO QUE LES GUSTE FANÁTICOS DE NARUTO
SI NO LE ENTIENDEN AL PRINCIPIO ESCUCHEN LA ROLA DE ROCK LEE PARA QUE SE DEN UNA IDEA DE COMO ES
SALUDOS A TODOS





Calificar esta versión:
Aviso: Este fichero es trabajo propio de su transcriptor y representa su interpretación personal de la canción. El material contenido en esta página es para exclusivo uso privado, por lo que se prohibe su reproducción o retransmisión, así como su uso para fines comerciales.