Raising Fighting Spirit, Naruto (bajo)

Autor: someparty | 17470 visualizaciones



INTRO
G|------|
D|------|
A|------|
E|-12/0-|

PART 1 [X2]
G|-------------------------------------------|
D|-------------------------------------------|
A|-------------2-0---------------------5~-0~-|
E|-0-0-0-3-2-0-----2-3-2-0-0-0-0-3-2-0-------|

G|----------------------------------------|
D|----------------------------------------|
A|-------------2-0-----------3-3-----2-2--|
E|-0-0-0-3-2-0-----2-3-2-0-0-----0-0------|

PART 2 [X2]
G|-------------------------------------------------------|
D|-------------------------------------------------------|
A|-------------------------------------------------------|
E|-0--0-0-0-0-0--0-0-0-0-10--10-10-10-10-10--10-10-10-10-|

G|-------------------------------------------------------|
D|-------------------------------------------------------|
A|-------------------------------------------------------|
E|-0--0-0-0-0-0--0-0-0-0-10--10-10-10-10-10--10-10-10-10-|

G|-------------------------------------------------------|
D|-------------------------------------------------------|
A|-------------------------------------------------------|
E|-8--8-8-8-8-8--8-8-8-8-10--10-10-10-10-10--10-10-10-10-|

G|-----------------------------------------|
D|-----------------------------------------|
A|-------------2-0-----------3-3-----[2-2]-| <---- [On the repeat]
E|-0-0-0-3-2-0-----2-3-2-0-0-----0-0-------|    [The 2 changes to a 5]

PART 3
G|-------------------------------------------------------------------|
D|-------------------------------------------------------------------|
A|-------------------------------------------------------------------|
E|-8--8-8-8-8-8--8-8-8-8-8--8-8-8-8-8--8-8-8-8-7--7-7-7-7-7--7-7-7-7-|

G|------------------------------------------------------------|
D|------------------------------------------------------------|
A|------------------------------------------------------------|
E|-0-0-0-2-2-2-3-3-3-4-4-4-5--5-5-5-5-5--5-5-5-5-7--7-7-7-7-7-|

G|----------------------------------------------|
D|----------------------------------------------|
A|----------------------------------------------|
E|-7-7-7-7-8--8-8-8-8-8--8-8-8-8-10--10--10--10-|


PART 4
G|-------------------------------------------------|
D|-------------------------------------------------|
A|-------------------------------------------------|
E|-0-0-0-0-0-0-2-2-2-2-2-2-3-3-3-3-3-3-3-3-3-3-3-3-|

G|-------------------------------------------------|
D|-------------------------------------------------|
A|-3-3-3-3-3-3-------------5-5-5-5-5-5-2-2-2-2-2-2-|
E|-------------3-3-3-3-3-3-------------------------|

G|-------------------------------------------------|
D|-------------------------------------------------|
A|-------------------------------------------------|
E|-0-0-0-0-0-0-2-2-2-2-2-2-3-3-3-3-3-3-3-3-3-3-3-3-|

G|------------------------------------|
D|-------------------------2--2--2--2-|
A|-3-3-3-3-3-3-5-5-5-5-5-5------------|
E|------------------------------------|

PART 5 [X2]
G|-------------------------------------------|
D|-------------------------------------------|
A|-------------2-0---------------------5~-0~-|
E|-0-0-0-3-2-0-----2-3-2-0-0-0-0-3-2-0-------|

G|----------------------------------------|
D|----------------------------------------|
A|-------------2-0-----------3-3-----2-2--|
E|-0-0-0-3-2-0-----2-3-2-0-0-----0-0------|

OUTRO
G|----------------------|
D|----------------------|
A|-7--7--7--7--7--7--7~-|
E|----------------------|





Calificar esta versión:
Aviso: Este fichero es trabajo propio de su transcriptor y representa su interpretación personal de la canción. El material contenido en esta página es para exclusivo uso privado, por lo que se prohibe su reproducción o retransmisión, así como su uso para fines comerciales.