Nube, Nano Stern (tablatura)

Autor: Anónimo | 44689 visualizaciones



excelente cancion de nano stern...
como no sacarla, me picaron los dedos varios dias
hasta q le dedique una tarde
espero q les guste:




||-----------------------------------------------------------------
||------------------------------0----------------------------------
||----------------------------------0------------------------------
||-----------------2-4-5---5----5-------------------2-4-5--4-4-0-0-
||------0-2-3-5---------------------------0-2-3-5-------2----------
||---3-----------------3--------------- 3--------------------------
   Como una nube que se va              te veo pero se que ya....


||--------------------------------------------------------------||
||------------------------------------------------0-------------||
||------------------------------------------------------0-------||
||----------------2-4-5-4-4-0-0h2-0-0h2-0-0------------0--------||
||-----0-2-3-5--------3---------3-----3---------2-----2---------||
||---3-----------------------------------------3----------------||
     tu forma cambia ...


||---------------------------------------------------------------------||
||---------------------------------------------------------------------||
||-----------------------------------0-2-4-2-0-----4-4-2-4-5-4-2-0-----||
||---------------2-5-4----0-2-4------0-------0----------------------2--||
||----0-2-3-5----------2-----------------------------------0---2----3--||
||--3----------------0---------------2-------3-------------------------||
    un dia te condensaras.....                   yo no voy a protegerme mas





||-------------------------------------------------0-----0--------0--7-
||------------------------------0------0--0------0-----0----5---3----0-
||---------------------------0-------0---------0-----0--------4--------
||-------------2-4-5----4---------4----------4--------------------------
||---0-2-3-5---------2---------------------5----------------3----------
||-3---------------0----------------------------------------------------

esta parte es la q viene despues,
luego se repite lo de arriba y al final va lo siguiente:


|-----------------------------------------------------------------------
|----------------------------------------------------------------------0
|-0--0-2-0-----0-------0--0--2-0------0----------0-0-2-0-------0--------
|----2-------4----4--2--- 2---------4-----4--2-----2---------4------4- 2
|------------5-------3--------------5--------3---------------5---------3
|-----------------------------------------------------------------------
      me basta con verte pasar...



eso es. segun yo





Calificar esta versión:
Aviso: Este fichero es trabajo propio de su transcriptor y representa su interpretación personal de la canción. El material contenido en esta página es para exclusivo uso privado, por lo que se prohibe su reproducción o retransmisión, así como su uso para fines comerciales.