No Te Imaginas, Nano Stern (tablatura)

Autor: Anónimo | 41991 visualizaciones



afinacion estandar


CEJILLO 3º TRASTE



arpegio principal:




   Am     G   F      D9/B       F#*    Em   F  G     Am     D9/B
-------- --- ------ ---------- ------  --- ------ ------0-- ------
----1--- -0- ----1- -3----1p3- -0---0  --- ----0- -1------- -3----
---2---- --- --2--- ----2----- ----4-  --- --2--- ----2---- ---2--
--2---2- --- ------ ---0------ ---0--  --- ------ ---2---2- ----0-
-0------ --- ---3-- -2----0--- ------  --- ------ -0------- -2----
-------- -3- -1---- ---------- -4----  -0- -1--3- --------- ------

G     C       C*         Dm
--- ----0- ----------0- ----1--
--- ---1-- --------5--- ---3-3-
--- --0--  ------3----- -------
--- ------ ----5------- --0----
--- -3---- --4--------- -------
-3- ------ ------------ -------



 C      D9/B      C     D9/B      Am       D9/B   A#   E
---- ---------- ----0-- ----- --------0-- ------- ---- -0------
---- --------3- ---1--- -3--- --1-------- -3----- -3-- ----0---
---- ------2--- ------- ----- -----2----- ---2--- ---- ---1----
---- ----0----- -----0- ---0- ----2----2- ----0-- ---3 --2---2-
--3- --2------- --3---- -2--- --0-------- -2----- ---- ----2---
---- ------- -- ------- ----- ----------- ------- -1-- -0------






No te imaginas como me siento
cuando debo partir,
cuando me miras y me doy cuenta
que no me quiero ir.
Pero debo seguir
mi forma de vivir.
Hay un camino largo que espera
y no puedo resistir.


interludio:

A  AM7 F7* AM7  X10
A  X4





 C       Dm   C7*                                      F(2º ESTROFA)
----0- --1-- -3-----3- -----5------ ----1---           -----1--
---1-- --3-- -----1--- ---1-------- ---0----           ---1----
--0--- ----- ---0----- --0--------- --2-----           ----2---
------ --0-- -2------- -3--------5- -3----2-           --------
-3---- ----- --------- ------------ --------           --------
------ ----- --------- ------------ --------           --1-----

  ( despues de este arpegio se repite desde la segunda Am hasta
   el final del arpegio principal ,el arpegio de F indica que en la
   segunda estrofa cambia la digitacion del arpegio en comparacion
   con el principal ,comparar)



No me imagino lo que me espera,
lo que podrá venir.
Voy navegando como en un barco
y ya no puedo salir
Por si se llega a hundir,
ahora voy a decir.
Ha sido tan hermosa esta vida
y no le temo a morir.

Por si se llega a hundir,
ahora voy a decir.
Ha sido tan hermosa esta vida
y no le temo a morir.

ha sido tan hermosa esta vida
y no le temo a morir.

Ha sido tan hermosa esta vida
y no me quiero morir!



algunos acordes:


F#*  4X0400
D9/B X20230
C*   x45350
C7*  030213


acordes del interludio con arpegio



 A          AM7    F7*
----0--- ----0-- ----0--
-0-1---- -0-1--- -0-1---
--2--2-- --0--0- -------
-------- ------- --3--3-
-0------ -0----- -0-----
-------- ------- -------





Calificar esta versión:
Aviso: Este fichero es trabajo propio de su transcriptor y representa su interpretación personal de la canción. El material contenido en esta página es para exclusivo uso privado, por lo que se prohibe su reproducción o retransmisión, así como su uso para fines comerciales.