Los Juegos, Nano Stern (acordes)

Autor: Anónimo | 45915 visualizaciones

ab11cdimee-gsosem-g


Cejillo en el 2do espacio

ACORDES PORQUE QUIZÁS LOS NOMBRS ESTÁN MALOS!

 E   C6/E    C#m7/11  Cdim   B11      A   E/G#
------------------------------0------------0---
-------------5--------4-------4------2-----0-----
-1---2-------4--------2-------4------2-----1-----
-2---2-------2--------4-------4------2-----2-----
-2---3-------4--------3-------2------0-----2-----
-0---0-------------------------------------4-----
Em/G  F#m11 F#m11/E    (G#m7/9/D#)    (C#m7/11/A)
0-----------------------------------0-------
0-----------------------------------0-------
0-----0-----0----------7------------4-------
0-----2-----2----------4------------4-------
2-----2-----2----------4------------2-------
2-----x-----x----------6------------0-------
3-----2-----1-------------------------------
Interludio

----------
--------2-
-1-2-4----
----------
--------0-
-0-2-4----



interludio 2

--------------
-0------------
----2-0---0---
--------4---2-
-4------3-----
--------------




E                   C6/E
En mi mente ya no estas

E                   C6/E
de mis sueños ya te vas
C#m7/11       Cdim     B11        A
yo mientras tanto espero que quizás
E/G# Em/G           F#m11 F#m11/F
un día no me rondes más

En algún otro lugar
se nos olvido jugar
tarde o temprano eso iba a pasar
yo nunca lo llegué a dudar


Interludio        C#m7/11
Y ahora miro p'atras
       B11              E
y me acuerdo de los juegos
       A        C#m7/11 B11
que no existen más



Interludio        C#m7/11
Y ahora miro p'atras
       (G#m7/9/D#)       E[octava mas alta]
y me acuerdo de los juegos
    (C#m7/11/A)   interludio dos
que no existen más


En mi mente ya no estás
de mis sueños ya te vas
yo mientras tanto espero que quizás

un día no me rondes más





Calificar esta versión:
Aviso: Este fichero es trabajo propio de su transcriptor y representa su interpretación personal de la canción. El material contenido en esta página es para exclusivo uso privado, por lo que se prohibe su reproducción o retransmisión, así como su uso para fines comerciales.