Emperador De Soledad, Namaste (acordes)

Autor: maxi87 | 34575 visualizaciones

a5b5c5d5e5g5
 Riff  1

E--0------0------0-2-3-----3-----3-------------------
A--------------------5-----5-----5----5---------5----
D--------------------5-----5-----5----7---------7----
G-------------------------------------7---------7----
B-------0-----0----------0----0-----------0--------0-
E-----0-----0----------0-----0-----0-----0--------0--


E---------------------3-2-0-
A--3----2------2h3--2-------
D--5----4-------------------   x2
G--5----4-------------------
B------------0--------------
E-----0----0----------------


Riff 1

“Guerrero de su batalla, dueño de tus palabras,
Inmigrante escondido buscando un sueño perdido,
Y ahí te das cuenta de que tus propios actos hoy te condenan,
No sos solo vos, es todo un pueblo con pena,
Y resignado…esperas el golpe!”

Riff 1

ESPERANDO EL IMPACTO
BIEN AL NORTE DEL Sol 
DONDE LA SOMBRA TE TAPA
DONDE NO HAY ESPLANDOR


E5                       G5          D5-C5-B5
HOY ES EL HAMBRE DE UN PUEBLO
E5            G5    D5-C5-B5
MAÑANA DESOLACION
E5              G5             D5-C5-B5
ES QUE CONOSCO YA ESTE FINAL
E5            5             D5-C5-B5
EMPERADOR DE SOLEDAD…





Estribillo

D5                 C5  A5                E5
Y SI ES QUE HOY GRITO…AL VACÍO COMPLETO
D5                C5     A5            E5
Y SI ES QUE DESCONFIO…A ESTA DUDA QUE PERSISTE…
D5                C5       A5-B5-C5
Y SI ES QUE HOY GRITO…
D5                C5       A5-B5-C5
Y SI ES QUE DESCONFIO…

A5-B5-C5   [x6]

Riff 1 [x2]

Riff 1
CUANDO LA QUIMICA NO DA,
Y LA SUMA ES DESIGUAL,
Y CUANDO GOLPEE LA PUERTA,
RESULTE ESTAR ABIERTA

[Con quintas]
HOY ES EL HAMBRE DE UN PUEBLO
MAÑANA DESOLACION
ES QUE CONOSCO YA ESTE FINAL
EMPERADOR DE SOLEDAD…

Estribillo

Y SI ES QUE HOY GRITO…AL VACÍO COMPLETO
Y SI ES QUE DESCONFIO…A ESTA DUDA QUE PERSISTE…
Y SI ES QUE HOY GRITO…
Y SI ES QUE DESOCNFIO…

Fin! 
Calificar esta versión:
Aviso: Este fichero es trabajo propio de su transcriptor y representa su interpretación personal de la canción. El material contenido en esta página es para exclusivo uso privado, por lo que se prohibe su reproducción o retransmisión, así como su uso para fines comerciales.