Algun Dia Cambiaras, Namaste (acordes)

Autor: maxi87 | 16316 visualizaciones

a5f5g5
 Intro:

Riff 1

E---------------------------------------------------
A---------------------------------------------------
D-7------7-----7----7-----7------7----5----5----5---
G---------------------------------------------------
B-----0------0----------0-----0----------0----0-----
E---7------8------0---7-----8------0----7----7----0-


E----------------------------------------
A-------------8---8----8---8----8----8---
D-5---5---5------------------------------
G----------------------------------------
B---0---0-------0----0--------0----0-----
E--7---8---0---7----8---0----7----7----0-

E--------------------------------
A--------------------------------
D-5----5----5---5----5-----------
G--------------------------------
B----0----0--------0-----------8-
E---7----8----0---7----7h8—7-5---


Riff 1
ALGUNA VES SENTISTE
LA FRASE DALE PODER AL HOMBRE,
Y VERÁS EN QUE SE CONVIERTE,
NECIO, DURO QUE NUNCA SE ARREPIENTE.

Riff 1
UNA NUEVA ESPERANZA,
ESO ESPERO QUE ME DES,
MI VOTO DE CONFIANZA
SIN CERTEZA TE DEJE...

A5
EN MI MESA QUIERO ESE PAN,
G5
ESE RAYO DE CALOR Y VIDA,
F5
NO QUIERO VER TU MANSIÓN
G5                         A5
SIN PODERME DAR SU EXPLICACIÓN...


Riff 1
LO QUE DIGO ES DURO Y CONCRETO
HARTO DE VERTE JUGAR,
POCO SINCERO LAS FUERZAS YA NO ALCANZAN
Y NOS ROBAN LA ESPERANZA...


Fin!
Calificar esta versión:
Aviso: Este fichero es trabajo propio de su transcriptor y representa su interpretación personal de la canción. El material contenido en esta página es para exclusivo uso privado, por lo que se prohibe su reproducción o retransmisión, así como su uso para fines comerciales.